ISO-10303-21;
HEADER;
FILE_DESCRIPTION (( 'STEP AP203' ),
    '1' );
FILE_NAME ('43368C_36573.step',
    '2017-07-20T12:43:57',
    ( '' ),
    ( '' ),
    'SwSTEP 2.0',
    'SolidWorks 2016',
    '' );
FILE_SCHEMA (( 'CONFIG_CONTROL_DESIGN' ));
ENDSEC;

DATA;
#1 = ORIENTED_EDGE ( 'NONE', *, *, #57, .T. ) ;
#2 = DIRECTION ( 'NONE',  ( 1.000000000000000000, 0.0000000000000000000, -0.0000000000000000000 ) ) ;
#3 = DATE_AND_TIME ( #37, #72 ) ;
#4 = CIRCLE ( 'NONE', #142, 10.00000000000000000 ) ;
#5 = VERTEX_POINT ( 'NONE', #93 ) ;
#6 = CC_DESIGN_DATE_AND_TIME_ASSIGNMENT ( #64, #148, ( #164 ) ) ;
#7 = PERSON_AND_ORGANIZATION ( #128, #159 ) ;
#8 = AXIS2_PLACEMENT_3D ( 'NONE', #169, #73, #2 ) ;
#9 = MECHANICAL_CONTEXT ( 'NONE', #156, 'mechanical' ) ;
#10 = DIRECTION ( 'NONE',  ( 0.0000000000000000000, 0.0000000000000000000, 1.000000000000000000 ) ) ;
#11 = PERSON_AND_ORGANIZATION ( #128, #159 ) ;
#12 = DATE_AND_TIME ( #50, #84 ) ;
#13 = APPROVAL_ROLE ( '' ) ;
#14 = CARTESIAN_POINT ( 'NONE',  ( 0.0000000000000000000, 0.0000000000000000000, -1.000000000000000000 ) ) ;
#15 = CARTESIAN_POINT ( 'NONE',  ( 10.00000000000000000, 1.224646799147353300E-015, -1.000000000000000000 ) ) ;
#16 = DIRECTION ( 'NONE',  ( 1.000000000000000000, 0.0000000000000000000, -0.0000000000000000000 ) ) ;
#17 = COORDINATED_UNIVERSAL_TIME_OFFSET ( 5, 0, .BEHIND. ) ;
#18 = PERSON_AND_ORGANIZATION ( #128, #159 ) ;
#19 = DIRECTION ( 'NONE',  ( -0.0000000000000000000, -0.0000000000000000000, -1.000000000000000000 ) ) ;
#20 = APPROVAL ( #55, 'UNSPECIFIED' ) ;
#21 = CARTESIAN_POINT ( 'NONE',  ( 10.00000000000000000, 1.224646799147353300E-015, 1.000000000000000000 ) ) ;
#22 = CYLINDRICAL_SURFACE ( 'NONE', #154, 10.00000000000000000 ) ;
#23 = SHAPE_DEFINITION_REPRESENTATION ( #67, #42 ) ;
#24 = CARTESIAN_POINT ( 'NONE',  ( -10.00000000000000000, 0.0000000000000000000, 1.000000000000000000 ) ) ;
#25 = FACE_OUTER_BOUND ( 'NONE', #140, .T. ) ;
#26 = FACE_OUTER_BOUND ( 'NONE', #133, .T. ) ;
#27 = DIRECTION ( 'NONE',  ( -0.0000000000000000000, -0.0000000000000000000, -1.000000000000000000 ) ) ;
#28 = ADVANCED_FACE ( 'NONE', ( #59 ), #40, .F. ) ;
#29 = CC_DESIGN_APPROVAL ( #20, ( #164 ) ) ;
#30 = CIRCLE ( 'NONE', #124, 10.00000000000000000 ) ;
#31 = ORIENTED_EDGE ( 'NONE', *, *, #57, .F. ) ;
#32 = DIRECTION ( 'NONE',  ( 0.0000000000000000000, 0.0000000000000000000, 1.000000000000000000 ) ) ;
#33 = ORIENTED_EDGE ( 'NONE', *, *, #94, .F. ) ;
#34 = CC_DESIGN_SECURITY_CLASSIFICATION ( #164, ( #106 ) ) ;
#35 = PERSON_AND_ORGANIZATION ( #128, #159 ) ;
#36 = VERTEX_POINT ( 'NONE', #85 ) ;
#37 = CALENDAR_DATE ( 2017, 20, 7 ) ;
#38 = DESIGN_CONTEXT ( 'detailed design', #103, 'design' ) ;
#39 = DATE_TIME_ROLE ( 'creation_date' ) ;
#40 = PLANE ( 'NONE',  #110 ) ;
#41 =( LENGTH_UNIT ( ) NAMED_UNIT ( * ) SI_UNIT ( .MILLI., .METRE. ) );
#42 = ADVANCED_BREP_SHAPE_REPRESENTATION ( '43368C_36573', ( #70, #48 ), #132 ) ;
#43 = LINE ( 'NONE', #137, #56 ) ;
#44 = PERSON_AND_ORGANIZATION_ROLE ( 'design_supplier' ) ;
#45 = DATE_AND_TIME ( #79, #112 ) ;
#46 = SECURITY_CLASSIFICATION_LEVEL ( 'unclassified' ) ;
#47 = PRODUCT_RELATED_PRODUCT_CATEGORY ( 'detail', '', ( #163 ) ) ;
#48 = AXIS2_PLACEMENT_3D ( 'NONE', #167, #97, #158 ) ;
#49 = APPROVAL_DATE_TIME ( #83, #69 ) ;
#50 = CALENDAR_DATE ( 2017, 20, 7 ) ;
#51 = EDGE_CURVE ( 'NONE', #99, #36, #166, .T. ) ;
#52 = CARTESIAN_POINT ( 'NONE',  ( 0.0000000000000000000, 0.0000000000000000000, 1.000000000000000000 ) ) ;
#53 = APPROVAL_PERSON_ORGANIZATION ( #87, #69, #152 ) ;
#54 = CC_DESIGN_PERSON_AND_ORGANIZATION_ASSIGNMENT ( #119, #91, ( #163 ) ) ;
#55 = APPROVAL_STATUS ( 'not_yet_approved' ) ;
#56 = VECTOR ( 'NONE', #27, 1000.000000000000000 ) ;
#57 = EDGE_CURVE ( 'NONE', #66, #5, #122, .T. ) ;
#58 = APPROVAL_ROLE ( '' ) ;
#59 = FACE_OUTER_BOUND ( 'NONE', #96, .T. ) ;
#60 = DIRECTION ( 'NONE',  ( 1.000000000000000000, 0.0000000000000000000, 0.0000000000000000000 ) ) ;
#61 = PRODUCT_DEFINITION ( 'UNKNOWN', '', #106, #38 ) ;
#62 = DIRECTION ( 'NONE',  ( 0.0000000000000000000, 0.0000000000000000000, 1.000000000000000000 ) ) ;
#63 = ORIENTED_EDGE ( 'NONE', *, *, #65, .F. ) ;
#64 = DATE_AND_TIME ( #100, #131 ) ;
#65 = EDGE_CURVE ( 'NONE', #66, #99, #43, .T. ) ;
#66 = VERTEX_POINT ( 'NONE', #21 ) ;
#67 = PRODUCT_DEFINITION_SHAPE ( 'NONE', 'NONE',  #61 ) ;
#68 = PERSON_AND_ORGANIZATION ( #128, #159 ) ;
#69 = APPROVAL ( #170, 'UNSPECIFIED' ) ;
#70 = MANIFOLD_SOLID_BREP ( 'Boss-Extrude1', #71 ) ;
#71 = CLOSED_SHELL ( 'NONE', ( #78, #92, #139, #28 ) ) ;
#72 = LOCAL_TIME ( 8, 43, 57.00000000000000000, #109 ) ;
#73 = DIRECTION ( 'NONE',  ( 0.0000000000000000000, 0.0000000000000000000, 1.000000000000000000 ) ) ;
#74 = EDGE_CURVE ( 'NONE', #5, #66, #30, .T. ) ;
#75 = APPLICATION_PROTOCOL_DEFINITION ( 'international standard', 'config_control_design', 1994, #156 ) ;
#76 = CARTESIAN_POINT ( 'NONE',  ( 0.0000000000000000000, 0.0000000000000000000, 1.000000000000000000 ) ) ;
#77 = ORIENTED_EDGE ( 'NONE', *, *, #86, .F. ) ;
#78 = ADVANCED_FACE ( 'NONE', ( #25 ), #22, .T. ) ;
#79 = CALENDAR_DATE ( 2017, 20, 7 ) ;
#80 = CC_DESIGN_APPROVAL ( #69, ( #61 ) ) ;
#81 = DIRECTION ( 'NONE',  ( -1.000000000000000000, 0.0000000000000000000, 0.0000000000000000000 ) ) ;
#82 = LINE ( 'NONE', #24, #95 ) ;
#83 = DATE_AND_TIME ( #114, #149 ) ;
#84 = LOCAL_TIME ( 8, 43, 57.00000000000000000, #115 ) ;
#85 = CARTESIAN_POINT ( 'NONE',  ( -10.00000000000000000, 0.0000000000000000000, -1.000000000000000000 ) ) ;
#86 = EDGE_CURVE ( 'NONE', #36, #99, #4, .T. ) ;
#87 = PERSON_AND_ORGANIZATION ( #128, #159 ) ;
#88 = PERSON_AND_ORGANIZATION_ROLE ( 'classification_officer' ) ;
#89 = CC_DESIGN_PERSON_AND_ORGANIZATION_ASSIGNMENT ( #11, #117, ( #61 ) ) ;
#90 = DIRECTION ( 'NONE',  ( 1.000000000000000000, 0.0000000000000000000, 0.0000000000000000000 ) ) ;
#91 = PERSON_AND_ORGANIZATION_ROLE ( 'design_owner' ) ;
#92 = ADVANCED_FACE ( 'NONE', ( #160 ), #162, .T. ) ;
#93 = CARTESIAN_POINT ( 'NONE',  ( -10.00000000000000000, 0.0000000000000000000, 1.000000000000000000 ) ) ;
#94 = EDGE_CURVE ( 'NONE', #5, #36, #82, .T. ) ;
#95 = VECTOR ( 'NONE', #136, 1000.000000000000000 ) ;
#96 = EDGE_LOOP ( 'NONE', ( #77, #168 ) ) ;
#97 = DIRECTION ( 'NONE',  ( 0.0000000000000000000, 0.0000000000000000000, 1.000000000000000000 ) ) ;
#98 = CC_DESIGN_DATE_AND_TIME_ASSIGNMENT ( #45, #39, ( #61 ) ) ;
#99 = VERTEX_POINT ( 'NONE', #15 ) ;
#100 = CALENDAR_DATE ( 2017, 20, 7 ) ;
#101 = AXIS2_PLACEMENT_3D ( 'NONE', #155, #102, #60 ) ;
#102 = DIRECTION ( 'NONE',  ( 0.0000000000000000000, 0.0000000000000000000, 1.000000000000000000 ) ) ;
#103 = APPLICATION_CONTEXT ( 'configuration controlled 3d designs of mechanical parts and assemblies' ) ;
#104 = ORIENTED_EDGE ( 'NONE', *, *, #94, .T. ) ;
#105 = PERSON_AND_ORGANIZATION ( #128, #159 ) ;
#106 = PRODUCT_DEFINITION_FORMATION_WITH_SPECIFIED_SOURCE ( 'ANY', '', #163, .NOT_KNOWN. ) ;
#107 = ORIENTED_EDGE ( 'NONE', *, *, #65, .T. ) ;
#108 =( NAMED_UNIT ( * ) SI_UNIT ( $, .STERADIAN. ) SOLID_ANGLE_UNIT ( ) );
#109 = COORDINATED_UNIVERSAL_TIME_OFFSET ( 5, 0, .BEHIND. ) ;
#110 = AXIS2_PLACEMENT_3D ( 'NONE', #14, #32, #16 ) ;
#111 = ORIENTED_EDGE ( 'NONE', *, *, #51, .T. ) ;
#112 = LOCAL_TIME ( 8, 43, 57.00000000000000000, #145 ) ;
#113 = APPROVAL ( #161, 'UNSPECIFIED' ) ;
#114 = CALENDAR_DATE ( 2017, 20, 7 ) ;
#115 = COORDINATED_UNIVERSAL_TIME_OFFSET ( 5, 0, .BEHIND. ) ;
#116 = AXIS2_PLACEMENT_3D ( 'NONE', #52, #10, #125 ) ;
#117 = PERSON_AND_ORGANIZATION_ROLE ( 'creator' ) ;
#118 = PERSON_AND_ORGANIZATION_ROLE ( 'creator' ) ;
#119 = PERSON_AND_ORGANIZATION ( #128, #159 ) ;
#120 = CARTESIAN_POINT ( 'NONE',  ( 0.0000000000000000000, 0.0000000000000000000, 1.000000000000000000 ) ) ;
#121 = CC_DESIGN_APPROVAL ( #113, ( #106 ) ) ;
#122 = CIRCLE ( 'NONE', #116, 10.00000000000000000 ) ;
#123 = APPLICATION_PROTOCOL_DEFINITION ( 'international standard', 'config_control_design', 1994, #103 ) ;
#124 = AXIS2_PLACEMENT_3D ( 'NONE', #130, #165, #153 ) ;
#125 = DIRECTION ( 'NONE',  ( 1.000000000000000000, 0.0000000000000000000, 0.0000000000000000000 ) ) ;
#126 = ORIENTED_EDGE ( 'NONE', *, *, #74, .T. ) ;
#127 = CC_DESIGN_PERSON_AND_ORGANIZATION_ASSIGNMENT ( #105, #118, ( #106 ) ) ;
#128 = PERSON ( 'UNSPECIFIED', 'UNSPECIFIED', 'UNSPECIFIED', ('UNSPECIFIED'), ('UNSPECIFIED'), ('UNSPECIFIED') ) ;
#129 = ORIENTED_EDGE ( 'NONE', *, *, #86, .T. ) ;
#130 = CARTESIAN_POINT ( 'NONE',  ( 0.0000000000000000000, 0.0000000000000000000, 1.000000000000000000 ) ) ;
#131 = LOCAL_TIME ( 8, 43, 57.00000000000000000, #174 ) ;
#132 =( GEOMETRIC_REPRESENTATION_CONTEXT ( 3 ) GLOBAL_UNCERTAINTY_ASSIGNED_CONTEXT ( ( #143 ) ) GLOBAL_UNIT_ASSIGNED_CONTEXT ( ( #41, #146, #108 ) ) REPRESENTATION_CONTEXT ( 'NONE', 'WORKASPACE' ) );
#133 = EDGE_LOOP ( 'NONE', ( #126, #1 ) ) ;
#134 = APPROVAL_DATE_TIME ( #3, #113 ) ;
#135 = DIRECTION ( 'NONE',  ( -1.000000000000000000, 0.0000000000000000000, 0.0000000000000000000 ) ) ;
#136 = DIRECTION ( 'NONE',  ( -0.0000000000000000000, -0.0000000000000000000, -1.000000000000000000 ) ) ;
#137 = CARTESIAN_POINT ( 'NONE',  ( 10.00000000000000000, 1.224646799147353300E-015, 1.000000000000000000 ) ) ;
#138 = CC_DESIGN_PERSON_AND_ORGANIZATION_ASSIGNMENT ( #68, #44, ( #106 ) ) ;
#139 = ADVANCED_FACE ( 'NONE', ( #26 ), #151, .T. ) ;
#140 = EDGE_LOOP ( 'NONE', ( #31, #107, #111, #33 ) ) ;
#141 = APPROVAL_PERSON_ORGANIZATION ( #7, #113, #13 ) ;
#142 = AXIS2_PLACEMENT_3D ( 'NONE', #171, #62, #90 ) ;
#143 = UNCERTAINTY_MEASURE_WITH_UNIT (LENGTH_MEASURE( 1.000000000000000100E-005 ), #41, 'distance_accuracy_value', 'NONE');
#144 = ORIENTED_EDGE ( 'NONE', *, *, #74, .F. ) ;
#145 = COORDINATED_UNIVERSAL_TIME_OFFSET ( 5, 0, .BEHIND. ) ;
#146 =( NAMED_UNIT ( * ) PLANE_ANGLE_UNIT ( ) SI_UNIT ( $, .RADIAN. ) );
#147 = APPROVAL_DATE_TIME ( #12, #20 ) ;
#148 = DATE_TIME_ROLE ( 'classification_date' ) ;
#149 = LOCAL_TIME ( 8, 43, 57.00000000000000000, #17 ) ;
#150 = APPROVAL_PERSON_ORGANIZATION ( #18, #20, #58 ) ;
#151 = PLANE ( 'NONE',  #8 ) ;
#152 = APPROVAL_ROLE ( '' ) ;
#153 = DIRECTION ( 'NONE',  ( 1.000000000000000000, 0.0000000000000000000, 0.0000000000000000000 ) ) ;
#154 = AXIS2_PLACEMENT_3D ( 'NONE', #120, #19, #135 ) ;
#155 = CARTESIAN_POINT ( 'NONE',  ( 0.0000000000000000000, 0.0000000000000000000, -1.000000000000000000 ) ) ;
#156 = APPLICATION_CONTEXT ( 'configuration controlled 3d designs of mechanical parts and assemblies' ) ;
#157 = DIRECTION ( 'NONE',  ( -0.0000000000000000000, -0.0000000000000000000, -1.000000000000000000 ) ) ;
#158 = DIRECTION ( 'NONE',  ( 1.000000000000000000, 0.0000000000000000000, 0.0000000000000000000 ) ) ;
#159 = ORGANIZATION ( 'UNSPECIFIED', 'UNSPECIFIED', '' ) ;
#160 = FACE_OUTER_BOUND ( 'NONE', #173, .T. ) ;
#161 = APPROVAL_STATUS ( 'not_yet_approved' ) ;
#162 = CYLINDRICAL_SURFACE ( 'NONE', #175, 10.00000000000000000 ) ;
#163 = PRODUCT ( '43368C_36573', '43368C_36573', '', ( #9 ) ) ;
#164 = SECURITY_CLASSIFICATION ( '', '', #46 ) ;
#165 = DIRECTION ( 'NONE',  ( 0.0000000000000000000, 0.0000000000000000000, 1.000000000000000000 ) ) ;
#166 = CIRCLE ( 'NONE', #101, 10.00000000000000000 ) ;
#167 = CARTESIAN_POINT ( 'NONE',  ( 0.0000000000000000000, 0.0000000000000000000, 0.0000000000000000000 ) ) ;
#168 = ORIENTED_EDGE ( 'NONE', *, *, #51, .F. ) ;
#169 = CARTESIAN_POINT ( 'NONE',  ( 0.0000000000000000000, 0.0000000000000000000, 1.000000000000000000 ) ) ;
#170 = APPROVAL_STATUS ( 'not_yet_approved' ) ;
#171 = CARTESIAN_POINT ( 'NONE',  ( 0.0000000000000000000, 0.0000000000000000000, -1.000000000000000000 ) ) ;
#172 = CC_DESIGN_PERSON_AND_ORGANIZATION_ASSIGNMENT ( #35, #88, ( #164 ) ) ;
#173 = EDGE_LOOP ( 'NONE', ( #63, #144, #104, #129 ) ) ;
#174 = COORDINATED_UNIVERSAL_TIME_OFFSET ( 5, 0, .BEHIND. ) ;
#175 = AXIS2_PLACEMENT_3D ( 'NONE', #76, #157, #81 ) ;
ENDSEC;
END-ISO-10303-21;
