ISO-10303-21;
HEADER;
FILE_DESCRIPTION (( 'STEP AP203' ),
    '1' );
FILE_NAME ('Web Model 11876_11885.step',
    '2019-01-02T18:25:54',
    ( '' ),
    ( '' ),
    'SwSTEP 2.0',
    'SolidWorks 2016',
    '' );
FILE_SCHEMA (( 'CONFIG_CONTROL_DESIGN' ));
ENDSEC;

DATA;
#1 = CARTESIAN_POINT ( 'NONE',  ( 0.5000000000000000000, 0.0000000000000000000, 0.0000000000000000000 ) ) ;
#2 = EDGE_LOOP ( 'NONE', ( #216, #192, #169, #158 ) ) ;
#3 = MECHANICAL_CONTEXT ( 'NONE', #44, 'mechanical' ) ;
#4 = AXIS2_PLACEMENT_3D ( 'NONE', #184, #100, #79 ) ;
#5 = LOCAL_TIME ( 13, 25, 54.00000000000000000, #61 ) ;
#6 = DATE_AND_TIME ( #271, #5 ) ;
#7 = AXIS2_PLACEMENT_3D ( 'NONE', #139, #254, #167 ) ;
#8 = LOCAL_TIME ( 13, 25, 54.00000000000000000, #52 ) ;
#9 = CALENDAR_DATE ( 2019, 2, 1 ) ;
#10 = AXIS2_PLACEMENT_3D ( 'NONE', #185, #14, #253 ) ;
#11 = VERTEX_POINT ( 'NONE', #60 ) ;
#12 = CC_DESIGN_DATE_AND_TIME_ASSIGNMENT ( #6, #88, ( #145 ) ) ;
#13 = DIRECTION ( 'NONE',  ( -1.000000000000000000, 0.0000000000000000000, 0.0000000000000000000 ) ) ;
#14 = DIRECTION ( 'NONE',  ( 1.000000000000000000, -0.0000000000000000000, -0.0000000000000000000 ) ) ;
#15 = ADVANCED_FACE ( 'NONE', ( #202 ), #126, .T. ) ;
#16 = CARTESIAN_POINT ( 'NONE',  ( 0.5000000000000000000, 1.530808498934191500E-015, -12.50000000000000000 ) ) ;
#17 = APPROVAL_PERSON_ORGANIZATION ( #219, #159, #21 ) ;
#18 = EDGE_LOOP ( 'NONE', ( #241, #30 ) ) ;
#19 = DIRECTION ( 'NONE',  ( 0.0000000000000000000, 0.0000000000000000000, 1.000000000000000000 ) ) ;
#20 = AXIS2_PLACEMENT_3D ( 'NONE', #107, #217, #123 ) ;
#21 = APPROVAL_ROLE ( '' ) ;
#22 = DIRECTION ( 'NONE',  ( -1.000000000000000000, 0.0000000000000000000, 0.0000000000000000000 ) ) ;
#23 = DATE_AND_TIME ( #257, #215 ) ;
#24 = FACE_OUTER_BOUND ( 'NONE', #200, .T. ) ;
#25 = CC_DESIGN_APPROVAL ( #83, ( #53 ) ) ;
#26 = EDGE_CURVE ( 'NONE', #249, #35, #134, .T. ) ;
#27 = CONICAL_SURFACE ( 'NONE', #238, 12.50000000000000000, 0.7853981633974309600 ) ;
#28 = PRODUCT_DEFINITION_SHAPE ( 'NONE', 'NONE',  #145 ) ;
#29 = ORIENTED_EDGE ( 'NONE', *, *, #133, .T. ) ;
#30 = ORIENTED_EDGE ( 'NONE', *, *, #240, .T. ) ;
#31 = ADVANCED_FACE ( 'NONE', ( #199 ), #118, .T. ) ;
#32 = PERSON_AND_ORGANIZATION ( #156, #225 ) ;
#33 = ORIENTED_EDGE ( 'NONE', *, *, #91, .T. ) ;
#34 = CARTESIAN_POINT ( 'NONE',  ( -0.4500000000000002900, 0.0000000000000000000, 0.0000000000000000000 ) ) ;
#35 = VERTEX_POINT ( 'NONE', #203 ) ;
#36 = DIRECTION ( 'NONE',  ( 0.0000000000000000000, 0.0000000000000000000, -1.000000000000000000 ) ) ;
#37 = PLANE ( 'NONE',  #7 ) ;
#38 = LINE ( 'NONE', #16, #168 ) ;
#39 = PLANE ( 'NONE',  #49 ) ;
#40 = DIRECTION ( 'NONE',  ( 0.0000000000000000000, 0.0000000000000000000, -1.000000000000000000 ) ) ;
#41 = PERSON_AND_ORGANIZATION_ROLE ( 'creator' ) ;
#42 = ORIENTED_EDGE ( 'NONE', *, *, #226, .T. ) ;
#43 = VERTEX_POINT ( 'NONE', #250 ) ;
#44 = APPLICATION_CONTEXT ( 'configuration controlled 3d designs of mechanical parts and assemblies' ) ;
#45 = CC_DESIGN_APPROVAL ( #218, ( #210 ) ) ;
#46 = EDGE_CURVE ( 'NONE', #35, #258, #51, .T. ) ;
#47 = DATE_AND_TIME ( #85, #8 ) ;
#48 = VECTOR ( 'NONE', #228, 1000.000000000000000 ) ;
#49 = AXIS2_PLACEMENT_3D ( 'NONE', #189, #255, #108 ) ;
#50 = ORIENTED_EDGE ( 'NONE', *, *, #213, .F. ) ;
#51 = LINE ( 'NONE', #268, #222 ) ;
#52 = COORDINATED_UNIVERSAL_TIME_OFFSET ( 5, 0, .BEHIND. ) ;
#53 = SECURITY_CLASSIFICATION ( '', '', #260 ) ;
#54 = COORDINATED_UNIVERSAL_TIME_OFFSET ( 5, 0, .BEHIND. ) ;
#55 = AXIS2_PLACEMENT_3D ( 'NONE', #84, #22, #105 ) ;
#56 = FACE_OUTER_BOUND ( 'NONE', #2, .T. ) ;
#57 = DIRECTION ( 'NONE',  ( -1.000000000000000000, -0.0000000000000000000, -0.0000000000000000000 ) ) ;
#58 = CC_DESIGN_PERSON_AND_ORGANIZATION_ASSIGNMENT ( #206, #71, ( #210 ) ) ;
#59 = CARTESIAN_POINT ( 'NONE',  ( -0.5000000000000000000, 0.0000000000000000000, -12.45000000000000300 ) ) ;
#60 = CARTESIAN_POINT ( 'NONE',  ( -0.5000000000000000000, 1.527746881936323400E-015, 12.45000000000000300 ) ) ;
#61 = COORDINATED_UNIVERSAL_TIME_OFFSET ( 5, 0, .BEHIND. ) ;
#62 = EDGE_CURVE ( 'NONE', #239, #43, #164, .T. ) ;
#63 = DIRECTION ( 'NONE',  ( 0.0000000000000000000, 0.0000000000000000000, -1.000000000000000000 ) ) ;
#64 = CARTESIAN_POINT ( 'NONE',  ( 0.5000000000000000000, 0.0000000000000000000, 12.45000000000000300 ) ) ;
#65 = CIRCLE ( 'NONE', #162, 12.50000000000000000 ) ;
#66 = DIRECTION ( 'NONE',  ( 1.000000000000000000, 0.0000000000000000000, 0.0000000000000000000 ) ) ;
#67 = AXIS2_PLACEMENT_3D ( 'NONE', #120, #87, #170 ) ;
#68 = DIRECTION ( 'NONE',  ( -1.000000000000000000, 0.0000000000000000000, 0.0000000000000000000 ) ) ;
#69 = CIRCLE ( 'NONE', #179, 12.45000000000000300 ) ;
#70 = APPROVAL_ROLE ( '' ) ;
#71 = PERSON_AND_ORGANIZATION_ROLE ( 'creator' ) ;
#72 = LOCAL_TIME ( 13, 25, 54.00000000000000000, #54 ) ;
#73 = ORIENTED_EDGE ( 'NONE', *, *, #149, .F. ) ;
#74 = CC_DESIGN_PERSON_AND_ORGANIZATION_ASSIGNMENT ( #81, #150, ( #210 ) ) ;
#75 = LINE ( 'NONE', #230, #209 ) ;
#76 = PERSON_AND_ORGANIZATION ( #156, #225 ) ;
#77 = FACE_OUTER_BOUND ( 'NONE', #214, .T. ) ;
#78 = AXIS2_PLACEMENT_3D ( 'NONE', #187, #274, #19 ) ;
#79 = DIRECTION ( 'NONE',  ( 0.0000000000000000000, 0.0000000000000000000, -1.000000000000000000 ) ) ;
#80 = DIRECTION ( 'NONE',  ( 0.0000000000000000000, 0.0000000000000000000, -1.000000000000000000 ) ) ;
#81 = PERSON_AND_ORGANIZATION ( #156, #225 ) ;
#82 = ORIENTED_EDGE ( 'NONE', *, *, #46, .F. ) ;
#83 = APPROVAL ( #171, 'UNSPECIFIED' ) ;
#84 = CARTESIAN_POINT ( 'NONE',  ( 0.5000000000000000000, 0.0000000000000000000, 0.0000000000000000000 ) ) ;
#85 = CALENDAR_DATE ( 2019, 2, 1 ) ;
#86 = COORDINATED_UNIVERSAL_TIME_OFFSET ( 5, 0, .BEHIND. ) ;
#87 = DIRECTION ( 'NONE',  ( 0.0000000000000000000, 0.0000000000000000000, 1.000000000000000000 ) ) ;
#88 = DATE_TIME_ROLE ( 'creation_date' ) ;
#89 = APPROVAL_PERSON_ORGANIZATION ( #137, #83, #70 ) ;
#90 = ORIENTED_EDGE ( 'NONE', *, *, #220, .T. ) ;
#91 = EDGE_CURVE ( 'NONE', #183, #258, #177, .T. ) ;
#92 = PERSON_AND_ORGANIZATION ( #156, #225 ) ;
#93 = EDGE_CURVE ( 'NONE', #154, #183, #174, .T. ) ;
#94 = ORIENTED_EDGE ( 'NONE', *, *, #240, .F. ) ;
#95 = ORIENTED_EDGE ( 'NONE', *, *, #46, .T. ) ;
#96 = CIRCLE ( 'NONE', #20, 12.45000000000000300 ) ;
#97 = ORIENTED_EDGE ( 'NONE', *, *, #152, .F. ) ;
#98 = DIRECTION ( 'NONE',  ( 1.000000000000000000, -0.0000000000000000000, -0.0000000000000000000 ) ) ;
#99 = EDGE_LOOP ( 'NONE', ( #97, #223, #153, #138 ) ) ;
#100 = DIRECTION ( 'NONE',  ( -1.000000000000000000, 0.0000000000000000000, 0.0000000000000000000 ) ) ;
#101 = DIRECTION ( 'NONE',  ( 0.7071067811865597900, 8.659560562354782500E-017, 0.7071067811865352500 ) ) ;
#102 = CC_DESIGN_PERSON_AND_ORGANIZATION_ASSIGNMENT ( #32, #41, ( #145 ) ) ;
#103 = APPROVAL_DATE_TIME ( #201, #218 ) ;
#104 = FACE_OUTER_BOUND ( 'NONE', #99, .T. ) ;
#105 = DIRECTION ( 'NONE',  ( 0.0000000000000000000, 0.0000000000000000000, 1.000000000000000000 ) ) ;
#106 = CC_DESIGN_DATE_AND_TIME_ASSIGNMENT ( #23, #127, ( #53 ) ) ;
#107 = CARTESIAN_POINT ( 'NONE',  ( -0.5000000000000000000, 0.0000000000000000000, 0.0000000000000000000 ) ) ;
#108 = DIRECTION ( 'NONE',  ( 0.0000000000000000000, 0.0000000000000000000, -1.000000000000000000 ) ) ;
#109 = CONICAL_SURFACE ( 'NONE', #232, 12.50000000000000000, 0.7853981633974309600 ) ;
#110 = AXIS2_PLACEMENT_3D ( 'NONE', #1, #66, #234 ) ;
#111 = CARTESIAN_POINT ( 'NONE',  ( 0.4500000000000072300, 0.0000000000000000000, 0.0000000000000000000 ) ) ;
#112 = VECTOR ( 'NONE', #101, 1000.000000000000000 ) ;
#113 = LOCAL_TIME ( 13, 25, 54.00000000000000000, #86 ) ;
#114 = ORIENTED_EDGE ( 'NONE', *, *, #198, .T. ) ;
#115 = PRODUCT_RELATED_PRODUCT_CATEGORY ( 'detail', '', ( #178 ) ) ;
#116 = MANIFOLD_SOLID_BREP ( 'Chamfer1', #247 ) ;
#117 = LINE ( 'NONE', #264, #263 ) ;
#118 = CYLINDRICAL_SURFACE ( 'NONE', #243, 12.50000000000000000 ) ;
#119 = DIRECTION ( 'NONE',  ( 0.0000000000000000000, 0.0000000000000000000, 1.000000000000000000 ) ) ;
#120 = CARTESIAN_POINT ( 'NONE',  ( 0.0000000000000000000, 0.0000000000000000000, 0.0000000000000000000 ) ) ;
#121 = CARTESIAN_POINT ( 'NONE',  ( -0.4500000000000002900, 0.0000000000000000000, 12.50000000000000000 ) ) ;
#122 = ORIENTED_EDGE ( 'NONE', *, *, #193, .T. ) ;
#123 = DIRECTION ( 'NONE',  ( 0.0000000000000000000, 0.0000000000000000000, -1.000000000000000000 ) ) ;
#124 =( LENGTH_UNIT ( ) NAMED_UNIT ( * ) SI_UNIT ( .MILLI., .METRE. ) );
#125 = APPROVAL_STATUS ( 'not_yet_approved' ) ;
#126 = CONICAL_SURFACE ( 'NONE', #175, 12.45000000000000300, 0.7853981633975003500 ) ;
#127 = DATE_TIME_ROLE ( 'classification_date' ) ;
#128 = CYLINDRICAL_SURFACE ( 'NONE', #78, 12.50000000000000000 ) ;
#129 = EDGE_LOOP ( 'NONE', ( #42, #29 ) ) ;
#130 = UNCERTAINTY_MEASURE_WITH_UNIT (LENGTH_MEASURE( 1.000000000000000100E-005 ), #124, 'distance_accuracy_value', 'NONE');
#131 = CC_DESIGN_PERSON_AND_ORGANIZATION_ASSIGNMENT ( #92, #272, ( #178 ) ) ;
#132 = ORIENTED_EDGE ( 'NONE', *, *, #220, .F. ) ;
#133 = EDGE_CURVE ( 'NONE', #11, #154, #69, .T. ) ;
#134 = CIRCLE ( 'NONE', #4, 12.50000000000000000 ) ;
#135 = DIRECTION ( 'NONE',  ( -0.7071067811865107100, 0.0000000000000000000, 0.7071067811865843200 ) ) ;
#136 = DIRECTION ( 'NONE',  ( -1.000000000000000000, -0.0000000000000000000, -0.0000000000000000000 ) ) ;
#137 = PERSON_AND_ORGANIZATION ( #156, #225 ) ;
#138 = ORIENTED_EDGE ( 'NONE', *, *, #198, .F. ) ;
#139 = CARTESIAN_POINT ( 'NONE',  ( 0.5000000000000000000, 0.0000000000000000000, 0.0000000000000000000 ) ) ;
#140 = APPROVAL_ROLE ( '' ) ;
#141 = SHAPE_DEFINITION_REPRESENTATION ( #28, #176 ) ;
#142 =( NAMED_UNIT ( * ) PLANE_ANGLE_UNIT ( ) SI_UNIT ( $, .RADIAN. ) );
#143 = DIRECTION ( 'NONE',  ( 1.000000000000000000, -0.0000000000000000000, -0.0000000000000000000 ) ) ;
#144 = APPLICATION_CONTEXT ( 'configuration controlled 3d designs of mechanical parts and assemblies' ) ;
#145 = PRODUCT_DEFINITION ( 'UNKNOWN', '', #210, #197 ) ;
#146 = ORIENTED_EDGE ( 'NONE', *, *, #213, .T. ) ;
#147 = ORIENTED_EDGE ( 'NONE', *, *, #149, .T. ) ;
#148 = CARTESIAN_POINT ( 'NONE',  ( 0.4500000000000072300, 1.530808498934191500E-015, -12.50000000000000000 ) ) ;
#149 = EDGE_CURVE ( 'NONE', #239, #35, #117, .T. ) ;
#150 = PERSON_AND_ORGANIZATION_ROLE ( 'design_supplier' ) ;
#151 = CONICAL_SURFACE ( 'NONE', #55, 12.45000000000000300, 0.7853981633975003500 ) ;
#152 = EDGE_CURVE ( 'NONE', #11, #258, #244, .T. ) ;
#153 = ORIENTED_EDGE ( 'NONE', *, *, #93, .T. ) ;
#154 = VERTEX_POINT ( 'NONE', #59 ) ;
#155 = FACE_OUTER_BOUND ( 'NONE', #129, .T. ) ;
#156 = PERSON ( 'UNSPECIFIED', 'UNSPECIFIED', 'UNSPECIFIED', ('UNSPECIFIED'), ('UNSPECIFIED'), ('UNSPECIFIED') ) ;
#157 = DIRECTION ( 'NONE',  ( 0.0000000000000000000, 0.0000000000000000000, 1.000000000000000000 ) ) ;
#158 = ORIENTED_EDGE ( 'NONE', *, *, #93, .F. ) ;
#159 = APPROVAL ( #212, 'UNSPECIFIED' ) ;
#160 = CARTESIAN_POINT ( 'NONE',  ( -0.5000000000000000000, 0.0000000000000000000, 0.0000000000000000000 ) ) ;
#161 = CARTESIAN_POINT ( 'NONE',  ( -0.4500000000000002900, 1.530808498934191500E-015, 12.50000000000000000 ) ) ;
#162 = AXIS2_PLACEMENT_3D ( 'NONE', #111, #68, #40 ) ;
#163 = CARTESIAN_POINT ( 'NONE',  ( -0.4500000000000002900, 0.0000000000000000000, 0.0000000000000000000 ) ) ;
#164 = CIRCLE ( 'NONE', #166, 12.45000000000000300 ) ;
#165 = APPLICATION_PROTOCOL_DEFINITION ( 'international standard', 'config_control_design', 1994, #144 ) ;
#166 = AXIS2_PLACEMENT_3D ( 'NONE', #245, #205, #231 ) ;
#167 = DIRECTION ( 'NONE',  ( 0.0000000000000000000, 0.0000000000000000000, -1.000000000000000000 ) ) ;
#168 = VECTOR ( 'NONE', #235, 1000.000000000000000 ) ;
#169 = ORIENTED_EDGE ( 'NONE', *, *, #91, .F. ) ;
#170 = DIRECTION ( 'NONE',  ( 1.000000000000000000, 0.0000000000000000000, 0.0000000000000000000 ) ) ;
#171 = APPROVAL_STATUS ( 'not_yet_approved' ) ;
#172 = DATE_AND_TIME ( #9, #72 ) ;
#173 = PERSON_AND_ORGANIZATION_ROLE ( 'classification_officer' ) ;
#174 = LINE ( 'NONE', #208, #48 ) ;
#175 = AXIS2_PLACEMENT_3D ( 'NONE', #182, #13, #157 ) ;
#176 = ADVANCED_BREP_SHAPE_REPRESENTATION ( 'Web Model 11876_11885', ( #116, #67 ), #191 ) ;
#177 = CIRCLE ( 'NONE', #273, 12.50000000000000000 ) ;
#178 = PRODUCT ( 'Web Model 11876_11885', 'Web Model 11876_11885', '', ( #3 ) ) ;
#179 = AXIS2_PLACEMENT_3D ( 'NONE', #160, #57, #80 ) ;
#180 = ORIENTED_EDGE ( 'NONE', *, *, #193, .F. ) ;
#181 = CARTESIAN_POINT ( 'NONE',  ( -0.4500000000000002900, 0.0000000000000000000, 0.0000000000000000000 ) ) ;
#182 = CARTESIAN_POINT ( 'NONE',  ( 0.5000000000000000000, 0.0000000000000000000, 0.0000000000000000000 ) ) ;
#183 = VERTEX_POINT ( 'NONE', #229 ) ;
#184 = CARTESIAN_POINT ( 'NONE',  ( 0.4500000000000072300, 0.0000000000000000000, 0.0000000000000000000 ) ) ;
#185 = CARTESIAN_POINT ( 'NONE',  ( -0.4500000000000002900, 0.0000000000000000000, 0.0000000000000000000 ) ) ;
#186 = DIRECTION ( 'NONE',  ( -0.7071067811865107100, 8.659560562355384000E-017, -0.7071067811865843200 ) ) ;
#187 = CARTESIAN_POINT ( 'NONE',  ( 0.5000000000000000000, 0.0000000000000000000, 0.0000000000000000000 ) ) ;
#188 = FACE_OUTER_BOUND ( 'NONE', #18, .T. ) ;
#189 = CARTESIAN_POINT ( 'NONE',  ( -0.5000000000000000000, 0.0000000000000000000, 0.0000000000000000000 ) ) ;
#190 = APPLICATION_PROTOCOL_DEFINITION ( 'international standard', 'config_control_design', 1994, #44 ) ;
#191 =( GEOMETRIC_REPRESENTATION_CONTEXT ( 3 ) GLOBAL_UNCERTAINTY_ASSIGNED_CONTEXT ( ( #130 ) ) GLOBAL_UNIT_ASSIGNED_CONTEXT ( ( #124, #142, #251 ) ) REPRESENTATION_CONTEXT ( 'NONE', 'WORKASPACE' ) );
#192 = ORIENTED_EDGE ( 'NONE', *, *, #152, .T. ) ;
#193 = EDGE_CURVE ( 'NONE', #43, #249, #75, .T. ) ;
#194 = APPROVAL_PERSON_ORGANIZATION ( #252, #218, #140 ) ;
#195 = ORIENTED_EDGE ( 'NONE', *, *, #26, .T. ) ;
#196 = ADVANCED_FACE ( 'NONE', ( #56 ), #109, .T. ) ;
#197 = DESIGN_CONTEXT ( 'detailed design', #144, 'design' ) ;
#198 = EDGE_CURVE ( 'NONE', #258, #183, #242, .T. ) ;
#199 = FACE_OUTER_BOUND ( 'NONE', #256, .T. ) ;
#200 = EDGE_LOOP ( 'NONE', ( #90, #146, #33, #82 ) ) ;
#201 = DATE_AND_TIME ( #262, #113 ) ;
#202 = FACE_OUTER_BOUND ( 'NONE', #259, .T. ) ;
#203 = CARTESIAN_POINT ( 'NONE',  ( 0.4500000000000072300, 0.0000000000000000000, 12.50000000000000000 ) ) ;
#204 = CC_DESIGN_APPROVAL ( #159, ( #145 ) ) ;
#205 = DIRECTION ( 'NONE',  ( 1.000000000000000000, 0.0000000000000000000, 0.0000000000000000000 ) ) ;
#206 = PERSON_AND_ORGANIZATION ( #156, #225 ) ;
#207 = ADVANCED_FACE ( 'NONE', ( #188 ), #37, .T. ) ;
#208 = CARTESIAN_POINT ( 'NONE',  ( -0.4500000000000002900, 0.0000000000000000000, -12.50000000000000000 ) ) ;
#209 = VECTOR ( 'NONE', #186, 1000.000000000000000 ) ;
#210 = PRODUCT_DEFINITION_FORMATION_WITH_SPECIFIED_SOURCE ( 'ANY', '', #178, .NOT_KNOWN. ) ;
#211 = DIRECTION ( 'NONE',  ( 0.0000000000000000000, 0.0000000000000000000, -1.000000000000000000 ) ) ;
#212 = APPROVAL_STATUS ( 'not_yet_approved' ) ;
#213 = EDGE_CURVE ( 'NONE', #249, #183, #38, .T. ) ;
#214 = EDGE_LOOP ( 'NONE', ( #94, #122, #132, #73 ) ) ;
#215 = LOCAL_TIME ( 13, 25, 54.00000000000000000, #266 ) ;
#216 = ORIENTED_EDGE ( 'NONE', *, *, #133, .F. ) ;
#217 = DIRECTION ( 'NONE',  ( -1.000000000000000000, -0.0000000000000000000, -0.0000000000000000000 ) ) ;
#218 = APPROVAL ( #125, 'UNSPECIFIED' ) ;
#219 = PERSON_AND_ORGANIZATION ( #156, #225 ) ;
#220 = EDGE_CURVE ( 'NONE', #35, #249, #65, .T. ) ;
#221 = CC_DESIGN_SECURITY_CLASSIFICATION ( #53, ( #210 ) ) ;
#222 = VECTOR ( 'NONE', #246, 1000.000000000000000 ) ;
#223 = ORIENTED_EDGE ( 'NONE', *, *, #226, .F. ) ;
#224 = CC_DESIGN_PERSON_AND_ORGANIZATION_ASSIGNMENT ( #76, #173, ( #53 ) ) ;
#225 = ORGANIZATION ( 'UNSPECIFIED', 'UNSPECIFIED', '' ) ;
#226 = EDGE_CURVE ( 'NONE', #154, #11, #96, .T. ) ;
#227 = CIRCLE ( 'NONE', #110, 12.45000000000000300 ) ;
#228 = DIRECTION ( 'NONE',  ( 0.7071067811865597900, 0.0000000000000000000, -0.7071067811865352500 ) ) ;
#229 = CARTESIAN_POINT ( 'NONE',  ( -0.4500000000000002900, 1.530808498934191500E-015, -12.50000000000000000 ) ) ;
#230 = CARTESIAN_POINT ( 'NONE',  ( 0.5000000000000000000, 1.524685264938455200E-015, -12.45000000000000300 ) ) ;
#231 = DIRECTION ( 'NONE',  ( 0.0000000000000000000, 0.0000000000000000000, -1.000000000000000000 ) ) ;
#232 = AXIS2_PLACEMENT_3D ( 'NONE', #181, #98, #36 ) ;
#233 = ADVANCED_FACE ( 'NONE', ( #104 ), #27, .T. ) ;
#234 = DIRECTION ( 'NONE',  ( 0.0000000000000000000, 0.0000000000000000000, -1.000000000000000000 ) ) ;
#235 = DIRECTION ( 'NONE',  ( -1.000000000000000000, -0.0000000000000000000, -0.0000000000000000000 ) ) ;
#236 = APPROVAL_DATE_TIME ( #172, #159 ) ;
#237 = ADVANCED_FACE ( 'NONE', ( #155 ), #39, .F. ) ;
#238 = AXIS2_PLACEMENT_3D ( 'NONE', #163, #143, #211 ) ;
#239 = VERTEX_POINT ( 'NONE', #64 ) ;
#240 = EDGE_CURVE ( 'NONE', #43, #239, #227, .T. ) ;
#241 = ORIENTED_EDGE ( 'NONE', *, *, #62, .T. ) ;
#242 = CIRCLE ( 'NONE', #10, 12.50000000000000000 ) ;
#243 = AXIS2_PLACEMENT_3D ( 'NONE', #248, #136, #119 ) ;
#244 = LINE ( 'NONE', #161, #112 ) ;
#245 = CARTESIAN_POINT ( 'NONE',  ( 0.5000000000000000000, 0.0000000000000000000, 0.0000000000000000000 ) ) ;
#246 = DIRECTION ( 'NONE',  ( -1.000000000000000000, -0.0000000000000000000, -0.0000000000000000000 ) ) ;
#247 = CLOSED_SHELL ( 'NONE', ( #196, #275, #261, #31, #207, #237, #15, #233 ) ) ;
#248 = CARTESIAN_POINT ( 'NONE',  ( 0.5000000000000000000, 0.0000000000000000000, 0.0000000000000000000 ) ) ;
#249 = VERTEX_POINT ( 'NONE', #148 ) ;
#250 = CARTESIAN_POINT ( 'NONE',  ( 0.5000000000000000000, 1.527746881936323400E-015, -12.45000000000000300 ) ) ;
#251 =( NAMED_UNIT ( * ) SI_UNIT ( $, .STERADIAN. ) SOLID_ANGLE_UNIT ( ) );
#252 = PERSON_AND_ORGANIZATION ( #156, #225 ) ;
#253 = DIRECTION ( 'NONE',  ( 0.0000000000000000000, 0.0000000000000000000, -1.000000000000000000 ) ) ;
#254 = DIRECTION ( 'NONE',  ( 1.000000000000000000, 0.0000000000000000000, 0.0000000000000000000 ) ) ;
#255 = DIRECTION ( 'NONE',  ( 1.000000000000000000, 0.0000000000000000000, 0.0000000000000000000 ) ) ;
#256 = EDGE_LOOP ( 'NONE', ( #50, #195, #95, #114 ) ) ;
#257 = CALENDAR_DATE ( 2019, 2, 1 ) ;
#258 = VERTEX_POINT ( 'NONE', #121 ) ;
#259 = EDGE_LOOP ( 'NONE', ( #180, #265, #147, #267 ) ) ;
#260 = SECURITY_CLASSIFICATION_LEVEL ( 'unclassified' ) ;
#261 = ADVANCED_FACE ( 'NONE', ( #24 ), #128, .T. ) ;
#262 = CALENDAR_DATE ( 2019, 2, 1 ) ;
#263 = VECTOR ( 'NONE', #135, 1000.000000000000000 ) ;
#264 = CARTESIAN_POINT ( 'NONE',  ( 0.5000000000000000000, 0.0000000000000000000, 12.45000000000000300 ) ) ;
#265 = ORIENTED_EDGE ( 'NONE', *, *, #62, .F. ) ;
#266 = COORDINATED_UNIVERSAL_TIME_OFFSET ( 5, 0, .BEHIND. ) ;
#267 = ORIENTED_EDGE ( 'NONE', *, *, #26, .F. ) ;
#268 = CARTESIAN_POINT ( 'NONE',  ( 0.5000000000000000000, 0.0000000000000000000, 12.50000000000000000 ) ) ;
#269 = APPROVAL_DATE_TIME ( #47, #83 ) ;
#270 = DIRECTION ( 'NONE',  ( 1.000000000000000000, -0.0000000000000000000, -0.0000000000000000000 ) ) ;
#271 = CALENDAR_DATE ( 2019, 2, 1 ) ;
#272 = PERSON_AND_ORGANIZATION_ROLE ( 'design_owner' ) ;
#273 = AXIS2_PLACEMENT_3D ( 'NONE', #34, #270, #63 ) ;
#274 = DIRECTION ( 'NONE',  ( -1.000000000000000000, -0.0000000000000000000, -0.0000000000000000000 ) ) ;
#275 = ADVANCED_FACE ( 'NONE', ( #77 ), #151, .T. ) ;
ENDSEC;
END-ISO-10303-21;
