ISO-10303-21;
HEADER;
FILE_DESCRIPTION (( 'STEP AP203' ),
    '1' );
FILE_NAME ('5mm BEAMSPLITTER CUBE TS_35958.step',
    '2017-07-18T13:26:23',
    ( '' ),
    ( '' ),
    'SwSTEP 2.0',
    'SolidWorks 2016',
    '' );
FILE_SCHEMA (( 'CONFIG_CONTROL_DESIGN' ));
ENDSEC;

DATA;
#1 = PERSON_AND_ORGANIZATION ( #222, #119 ) ;
#2 = DATE_AND_TIME ( #296, #118 ) ;
#3 = PERSON ( 'NAUO-PER2', 'UNSPECIFIED', 'UNSPECIFIED', ('UNSPECIFIED'), ('UNSPECIFIED'), ('UNSPECIFIED') ) ;
#4 = APPROVAL_PERSON_ORGANIZATION ( #65, #164, #82 ) ;
#5 = CC_DESIGN_SECURITY_CLASSIFICATION ( #278, ( #175 ) ) ;
#6 = CARTESIAN_POINT ( 'NONE',  ( 2.167624834490815300E-016, 3.535533905932719100, -2.500000000000000000 ) ) ;
#7 = ADVANCED_FACE ( 'NONE', ( #78 ), #158, .T. ) ;
#8 = ORIENTED_EDGE ( 'NONE', *, *, #169, .F. ) ;
#9 = CARTESIAN_POINT ( 'NONE',  ( -3.535533905932756400, 0.0000000000000000000, -2.500000000000000000 ) ) ;
#10 = PRODUCT_RELATED_PRODUCT_CATEGORY ( 'detail', '', ( #176 ) ) ;
#11 = APPLICATION_PROTOCOL_DEFINITION ( 'international standard', 'config_control_design', 1994, #317 ) ;
#12 = PERSON_AND_ORGANIZATION_ROLE ( 'classification_officer' ) ;
#13 = VERTEX_POINT ( 'NONE', #122 ) ;
#14 = PRODUCT_DEFINITION_SHAPE ( 'NONE', 'NONE',  #360 ) ;
#15 = CALENDAR_DATE ( 2017, 18, 7 ) ;
#16 = CALENDAR_DATE ( 2017, 18, 7 ) ;
#17 = SHAPE_REPRESENTATION ( '5mm BEAMSPLITTER CUBE TS_35958', ( #358, #286, #303 ), #324 ) ;
#18 = CC_DESIGN_PERSON_AND_ORGANIZATION_ASSIGNMENT ( #59, #354, ( #251 ) ) ;
#19 = ORIENTED_EDGE ( 'NONE', *, *, #273, .F. ) ;
#20 = FACE_OUTER_BOUND ( 'NONE', #190, .T. ) ;
#21 = PERSON_AND_ORGANIZATION ( #222, #119 ) ;
#22 = COORDINATED_UNIVERSAL_TIME_OFFSET ( 5, 0, .BEHIND. ) ;
#23 = PERSON_AND_ORGANIZATION ( #337, #323 ) ;
#24 = PRODUCT_RELATED_PRODUCT_CATEGORY ( 'detail', '', ( #251 ) ) ;
#25 = PRODUCT_DEFINITION ( 'UNKNOWN', '', #175, #159 ) ;
#26 = DIRECTION ( 'NONE',  ( 0.0000000000000000000, 0.0000000000000000000, 1.000000000000000000 ) ) ;
#27 = EDGE_LOOP ( 'NONE', ( #319, #315, #115 ) ) ;
#28 = CARTESIAN_POINT ( 'NONE',  ( 0.0000000000000000000, 0.0000000000000000000, 0.0000000000000000000 ) ) ;
#29 = DATE_AND_TIME ( #91, #173 ) ;
#30 = DATE_AND_TIME ( #183, #174 ) ;
#31 = CARTESIAN_POINT ( 'NONE',  ( 3.535533905932756400, -4.329780281177489400E-016, -2.500000000000000000 ) ) ;
#32 = SECURITY_CLASSIFICATION ( '', '', #142 ) ;
#33 = ADVANCED_FACE ( 'NONE', ( #245 ), #75, .F. ) ;
#34 = LINE ( 'NONE', #140, #180 ) ;
#35 = PLANE ( 'NONE',  #88 ) ;
#36 = LOCAL_TIME ( 9, 26, 23.00000000000000000, #98 ) ;
#37 = APPROVAL_DATE_TIME ( #110, #179 ) ;
#38 = CC_DESIGN_SECURITY_CLASSIFICATION ( #32, ( #360 ) ) ;
#39 = APPROVAL ( #104, 'UNSPECIFIED' ) ;
#40 = COORDINATED_UNIVERSAL_TIME_OFFSET ( 5, 0, .BEHIND. ) ;
#41 = LOCAL_TIME ( 9, 26, 23.00000000000000000, #223 ) ;
#42 = CC_DESIGN_PERSON_AND_ORGANIZATION_ASSIGNMENT ( #49, #168, ( #176 ) ) ;
#43 =( NAMED_UNIT ( * ) PLANE_ANGLE_UNIT ( ) SI_UNIT ( $, .RADIAN. ) );
#44 = LINE ( 'NONE', #50, #343 ) ;
#45 = CARTESIAN_POINT ( 'NONE',  ( 2.167624834490815300E-016, 3.535533905932719100, 2.500000000000000000 ) ) ;
#46 = ORIENTED_EDGE ( 'NONE', *, *, #232, .T. ) ;
#47 = PRODUCT_DEFINITION_SHAPE ( 'NONE', 'NONE',  #61 ) ;
#48 = CARTESIAN_POINT ( 'NONE',  ( 2.167624834490815300E-016, 3.535533905932719100, 2.500000000000000000 ) ) ;
#49 = PERSON_AND_ORGANIZATION ( #222, #119 ) ;
#50 = CARTESIAN_POINT ( 'NONE',  ( -3.535533905932756400, 0.0000000000000000000, -2.500000000000000000 ) ) ;
#51 = APPROVAL ( #242, 'UNKNOWN' ) ;
#52 = VECTOR ( 'NONE', #231, 999.9999999999998900 ) ;
#53 = DIRECTION ( 'NONE',  ( 1.000000000000000000, 0.0000000000000000000, -0.0000000000000000000 ) ) ;
#54 = CC_DESIGN_APPROVAL ( #39, ( #25 ) ) ;
#55 = ORIENTED_EDGE ( 'NONE', *, *, #250, .F. ) ;
#56 = COORDINATED_UNIVERSAL_TIME_OFFSET ( 5, 0, .BEHIND. ) ;
#57 = DIRECTION ( 'NONE',  ( 0.7071067811865512400, 0.7071067811865439100, 0.0000000000000000000 ) ) ;
#58 = DATE_AND_TIME ( #63, #182 ) ;
#59 = PERSON_AND_ORGANIZATION ( #222, #119 ) ;
#60 = COORDINATED_UNIVERSAL_TIME_OFFSET ( 5, 0, .BEHIND. ) ;
#61 = PRODUCT_DEFINITION ( 'UNKNOWN', '', #152, #213 ) ;
#62 = SECURITY_CLASSIFICATION_LEVEL ( 'unclassified' ) ;
#63 = CALENDAR_DATE ( 2017, 18, 7 ) ;
#64 = PERSON_AND_ORGANIZATION ( #222, #119 ) ;
#65 = PERSON_AND_ORGANIZATION ( #3, #340 ) ;
#66 = CC_DESIGN_APPROVAL ( #51, ( #32 ) ) ;
#67 = APPROVAL_ROLE ( '' ) ;
#68 = DIRECTION ( 'NONE',  ( -0.7071067811865512400, 0.7071067811865439100, 0.0000000000000000000 ) ) ;
#69 = LINE ( 'NONE', #308, #260 ) ;
#70 = CALENDAR_DATE ( 2017, 18, 7 ) ;
#71 = LOCAL_TIME ( 9, 26, 23.00000000000000000, #60 ) ;
#72 = DATE_AND_TIME ( #116, #203 ) ;
#73 = DIRECTION ( 'NONE',  ( 0.0000000000000000000, 0.0000000000000000000, 1.000000000000000000 ) ) ;
#74 = CONTEXT_DEPENDENT_SHAPE_REPRESENTATION ( #268, #14 ) ;
#75 = PLANE ( 'NONE',  #290 ) ;
#76 = APPROVAL ( #95, 'UNSPECIFIED' ) ;
#77 = DIRECTION ( 'NONE',  ( -0.7071067811865512400, 0.7071067811865439100, 0.0000000000000000000 ) ) ;
#78 = FACE_OUTER_BOUND ( 'NONE', #27, .T. ) ;
#79 = PERSON_AND_ORGANIZATION_ROLE ( 'classification_officer' ) ;
#80 = APPROVAL_PERSON_ORGANIZATION ( #21, #179, #67 ) ;
#81 = VECTOR ( 'NONE', #83, 1000.000000000000000 ) ;
#82 = APPROVAL_ROLE ( '' ) ;
#83 = DIRECTION ( 'NONE',  ( -0.0000000000000000000, -0.0000000000000000000, -1.000000000000000000 ) ) ;
#84 = CC_DESIGN_DATE_AND_TIME_ASSIGNMENT ( #310, #328, ( #32 ) ) ;
#85 = APPROVAL_ROLE ( '' ) ;
#86 = APPROVAL_STATUS ( 'not_yet_approved' ) ;
#87 = ORIENTED_EDGE ( 'NONE', *, *, #293, .F. ) ;
#88 = AXIS2_PLACEMENT_3D ( 'NONE', #227, #132, #335 ) ;
#89 = DATE_TIME_ROLE ( 'creation_date' ) ;
#90 = PRODUCT_DEFINITION_SHAPE ( 'NONE', 'NONE',  #361 ) ;
#91 = CALENDAR_DATE ( 2017, 18, 7 ) ;
#92 = COORDINATED_UNIVERSAL_TIME_OFFSET ( 5, 0, .BEHIND. ) ;
#93 = CARTESIAN_POINT ( 'NONE',  ( 0.0000000000000000000, 0.0000000000000000000, 0.0000000000000000000 ) ) ;
#94 = CC_DESIGN_APPROVAL ( #76, ( #61 ) ) ;
#95 = APPROVAL_STATUS ( 'not_yet_approved' ) ;
#96 =( NAMED_UNIT ( * ) PLANE_ANGLE_UNIT ( ) SI_UNIT ( $, .RADIAN. ) );
#97 = APPROVAL_ROLE ( '' ) ;
#98 = COORDINATED_UNIVERSAL_TIME_OFFSET ( 5, 0, .BEHIND. ) ;
#99 = COORDINATED_UNIVERSAL_TIME_OFFSET ( 5, 0, .BEHIND. ) ;
#100 =( LENGTH_UNIT ( ) NAMED_UNIT ( * ) SI_UNIT ( .MILLI., .METRE. ) );
#101 = CARTESIAN_POINT ( 'NONE',  ( 3.535533905932756400, -4.329780281177489400E-016, 2.500000000000000000 ) ) ;
#102 = COORDINATED_UNIVERSAL_TIME_OFFSET ( 5, 0, .BEHIND. ) ;
#103 = CC_DESIGN_PERSON_AND_ORGANIZATION_ASSIGNMENT ( #23, #108, ( #32 ) ) ;
#104 = APPROVAL_STATUS ( 'not_yet_approved' ) ;
#105 = FACE_OUTER_BOUND ( 'NONE', #359, .T. ) ;
#106 = APPLICATION_CONTEXT ( 'configuration controlled 3d designs of mechanical parts and assemblies' ) ;
#107 = ORIENTED_EDGE ( 'NONE', *, *, #169, .T. ) ;
#108 = PERSON_AND_ORGANIZATION_ROLE ( 'classification_officer' ) ;
#109 = APPROVAL_DATE_TIME ( #239, #39 ) ;
#110 = DATE_AND_TIME ( #195, #329 ) ;
#111 = APPLICATION_PROTOCOL_DEFINITION ( 'international standard', 'config_control_design', 1994, #212 ) ;
#112 =( REPRESENTATION_RELATIONSHIP ('NONE','NONE', #17, #256 ) REPRESENTATION_RELATIONSHIP_WITH_TRANSFORMATION ( #247 )SHAPE_REPRESENTATION_RELATIONSHIP( ) );
#113 = CC_DESIGN_PERSON_AND_ORGANIZATION_ASSIGNMENT ( #149, #230, ( #61 ) ) ;
#114 = LINE ( 'NONE', #305, #289 ) ;
#115 = ORIENTED_EDGE ( 'NONE', *, *, #250, .T. ) ;
#116 = CALENDAR_DATE ( 2017, 18, 7 ) ;
#117 = PERSON_AND_ORGANIZATION_ROLE ( 'design_supplier' ) ;
#118 = LOCAL_TIME ( 9, 26, 23.00000000000000000, #214 ) ;
#119 = ORGANIZATION ( 'UNSPECIFIED', 'UNSPECIFIED', '' ) ;
#120 = SECURITY_CLASSIFICATION ( '', '', #287 ) ;
#121 = LINE ( 'NONE', #6, #52 ) ;
#122 = CARTESIAN_POINT ( 'NONE',  ( 2.167624834490815300E-016, 3.535533905932719100, -2.500000000000000000 ) ) ;
#123 = EDGE_LOOP ( 'NONE', ( #107, #145, #325, #153 ) ) ;
#124 = EDGE_CURVE ( 'NONE', #221, #13, #157, .T. ) ;
#125 = PERSON_AND_ORGANIZATION ( #222, #119 ) ;
#126 = CARTESIAN_POINT ( 'NONE',  ( -3.535533905932756400, 0.0000000000000000000, 2.500000000000000000 ) ) ;
#127 = CALENDAR_DATE ( 2017, 18, 7 ) ;
#128 = APPROVAL_PERSON_ORGANIZATION ( #297, #76, #97 ) ;
#129 = DIRECTION ( 'NONE',  ( 0.7071067811865439100, -0.7071067811865512400, 0.0000000000000000000 ) ) ;
#130 = CC_DESIGN_PERSON_AND_ORGANIZATION_ASSIGNMENT ( #211, #147, ( #25 ) ) ;
#131 = LOCAL_TIME ( 9, 26, 23.00000000000000000, #56 ) ;
#132 = DIRECTION ( 'NONE',  ( -0.7071067811865439100, -0.7071067811865512400, 0.0000000000000000000 ) ) ;
#133 = CC_DESIGN_DATE_AND_TIME_ASSIGNMENT ( #267, #217, ( #61 ) ) ;
#134 = ADVANCED_FACE ( 'NONE', ( #20 ), #35, .F. ) ;
#135 = SHAPE_REPRESENTATION_RELATIONSHIP ( 'NONE' , 'NONE' ,  #256, #338 ) ;
#136 = APPLICATION_PROTOCOL_DEFINITION ( 'international standard', 'config_control_design', 1994, #106 ) ;
#137 = APPROVAL_ROLE ( '' ) ;
#138 = CARTESIAN_POINT ( 'NONE',  ( 0.0000000000000000000, 0.0000000000000000000, -2.500000000000000000 ) ) ;
#139 = LOCAL_TIME ( 9, 26, 23.00000000000000000, #148 ) ;
#140 = CARTESIAN_POINT ( 'NONE',  ( 3.535533905932756400, -4.329780281177489400E-016, 2.500000000000000000 ) ) ;
#141 = COORDINATED_UNIVERSAL_TIME_OFFSET ( 5, 0, .BEHIND. ) ;
#142 = SECURITY_CLASSIFICATION_LEVEL ( 'unclassified' ) ;
#143 = CC_DESIGN_SECURITY_CLASSIFICATION ( #120, ( #361 ) ) ;
#144 = ORIENTED_EDGE ( 'NONE', *, *, #146, .F. ) ;
#145 = ORIENTED_EDGE ( 'NONE', *, *, #189, .F. ) ;
#146 = EDGE_CURVE ( 'NONE', #301, #221, #34, .T. ) ;
#147 = PERSON_AND_ORGANIZATION_ROLE ( 'creator' ) ;
#148 = COORDINATED_UNIVERSAL_TIME_OFFSET ( 5, 0, .BEHIND. ) ;
#149 = PERSON_AND_ORGANIZATION ( #222, #119 ) ;
#150 = COORDINATED_UNIVERSAL_TIME_OFFSET ( 5, 0, .BEHIND. ) ;
#151 = CC_DESIGN_DATE_AND_TIME_ASSIGNMENT ( #72, #89, ( #25 ) ) ;
#152 = PRODUCT_DEFINITION_FORMATION_WITH_SPECIFIED_SOURCE ( 'ANY', '', #176, .NOT_KNOWN. ) ;
#153 = ORIENTED_EDGE ( 'NONE', *, *, #273, .T. ) ;
#154 = PLANE ( 'NONE',  #237 ) ;
#155 = DIRECTION ( 'NONE',  ( 0.0000000000000000000, 0.0000000000000000000, 1.000000000000000000 ) ) ;
#156 = AXIS2_PLACEMENT_3D ( 'NONE', #166, #73, #53 ) ;
#157 = LINE ( 'NONE', #31, #233 ) ;
#158 = PLANE ( 'NONE',  #156 ) ;
#159 = DESIGN_CONTEXT ( 'detailed design', #212, 'design' ) ;
#160 = ORIENTED_EDGE ( 'NONE', *, *, #189, .T. ) ;
#161 = PLANE ( 'NONE',  #291 ) ;
#162 = APPROVAL_DATE_TIME ( #30, #51 ) ;
#163 = DIRECTION ( 'NONE',  ( -0.7071067811865512400, -0.7071067811865439100, 0.0000000000000000000 ) ) ;
#164 = APPROVAL ( #86, 'UNKNOWN' ) ;
#165 = VERTEX_POINT ( 'NONE', #9 ) ;
#166 = CARTESIAN_POINT ( 'NONE',  ( 0.0000000000000000000, 0.0000000000000000000, 2.500000000000000000 ) ) ;
#167 = APPROVAL_STATUS ( 'not_yet_approved' ) ;
#168 = PERSON_AND_ORGANIZATION_ROLE ( 'design_owner' ) ;
#169 = EDGE_CURVE ( 'NONE', #13, #165, #121, .T. ) ;
#170 = EDGE_LOOP ( 'NONE', ( #46, #144, #55, #160 ) ) ;
#171 = CARTESIAN_POINT ( 'NONE',  ( 0.0000000000000000000, 0.0000000000000000000, 0.0000000000000000000 ) ) ;
#172 = DIRECTION ( 'NONE',  ( 5.551115123125782700E-017, -1.232595164407830900E-032, 1.000000000000000200 ) ) ;
#173 = LOCAL_TIME ( 9, 26, 23.00000000000000000, #252 ) ;
#174 = LOCAL_TIME ( 9, 26, 23.00000000000000000, #92 ) ;
#175 = PRODUCT_DEFINITION_FORMATION_WITH_SPECIFIED_SOURCE ( 'ANY', '', #251, .NOT_KNOWN. ) ;
#176 = PRODUCT ( '5mm BEAMSPLITTER CUBE TS_35958', '5mm BEAMSPLITTER CUBE TS_35958', '', ( #344 ) ) ;
#177 = ORIENTED_EDGE ( 'NONE', *, *, #232, .F. ) ;
#178 = UNCERTAINTY_MEASURE_WITH_UNIT (LENGTH_MEASURE( 1.000000000000000100E-005 ), #281, 'distance_accuracy_value', 'NONE');
#179 = APPROVAL ( #187, 'UNSPECIFIED' ) ;
#180 = VECTOR ( 'NONE', #255, 1000.000000000000000 ) ;
#181 = CALENDAR_DATE ( 2017, 18, 7 ) ;
#182 = LOCAL_TIME ( 9, 26, 23.00000000000000000, #150 ) ;
#183 = CALENDAR_DATE ( 2017, 18, 7 ) ;
#184 = PERSON_AND_ORGANIZATION ( #222, #119 ) ;
#185 = CC_DESIGN_APPROVAL ( #164, ( #120 ) ) ;
#186 =( NAMED_UNIT ( * ) SI_UNIT ( $, .STERADIAN. ) SOLID_ANGLE_UNIT ( ) );
#187 = APPROVAL_STATUS ( 'not_yet_approved' ) ;
#188 = DIRECTION ( 'NONE',  ( 1.000000000000000000, 0.0000000000000000000, 0.0000000000000000000 ) ) ;
#189 = EDGE_CURVE ( 'NONE', #306, #165, #208, .T. ) ;
#190 = EDGE_LOOP ( 'NONE', ( #345, #19, #87, #201 ) ) ;
#191 = CARTESIAN_POINT ( 'NONE',  ( -3.535533905932756400, 0.0000000000000000000, 2.500000000000000000 ) ) ;
#192 = APPROVAL_PERSON_ORGANIZATION ( #326, #196, #137 ) ;
#193 =( GEOMETRIC_REPRESENTATION_CONTEXT ( 3 ) GLOBAL_UNCERTAINTY_ASSIGNED_CONTEXT ( ( #178 ) ) GLOBAL_UNIT_ASSIGNED_CONTEXT ( ( #281, #96, #186 ) ) REPRESENTATION_CONTEXT ( 'NONE', 'WORKASPACE' ) );
#194 = DIRECTION ( 'NONE',  ( 1.000000000000000000, 0.0000000000000000000, 0.0000000000000000000 ) ) ;
#195 = CALENDAR_DATE ( 2017, 18, 7 ) ;
#196 = APPROVAL ( #299, 'UNSPECIFIED' ) ;
#197 = DIRECTION ( 'NONE',  ( 6.123233995736766000E-017, 1.000000000000000000, -0.0000000000000000000 ) ) ;
#198 = CC_DESIGN_APPROVAL ( #179, ( #152 ) ) ;
#199 = VECTOR ( 'NONE', #163, 999.9999999999998900 ) ;
#200 = DATE_TIME_ROLE ( 'classification_date' ) ;
#201 = ORIENTED_EDGE ( 'NONE', *, *, #146, .T. ) ;
#202 = CARTESIAN_POINT ( 'NONE',  ( 0.0000000000000000000, 0.0000000000000000000, 0.0000000000000000000 ) ) ;
#203 = LOCAL_TIME ( 9, 26, 23.00000000000000000, #40 ) ;
#204 = APPROVAL_PERSON_ORGANIZATION ( #356, #316, #349 ) ;
#205 = SHAPE_DEFINITION_REPRESENTATION ( #264, #256 ) ;
#206 = PERSON_AND_ORGANIZATION_ROLE ( 'classification_officer' ) ;
#207 = CC_DESIGN_DATE_AND_TIME_ASSIGNMENT ( #229, #261, ( #120 ) ) ;
#208 = LINE ( 'NONE', #313, #81 ) ;
#209 = APPROVAL_STATUS ( 'not_yet_approved' ) ;
#210 = EDGE_CURVE ( 'NONE', #272, #306, #352, .T. ) ;
#211 = PERSON_AND_ORGANIZATION ( #222, #119 ) ;
#212 = APPLICATION_CONTEXT ( 'configuration controlled 3d designs of mechanical parts and assemblies' ) ;
#213 = DESIGN_CONTEXT ( 'detailed design', #317, 'design' ) ;
#214 = COORDINATED_UNIVERSAL_TIME_OFFSET ( 5, 0, .BEHIND. ) ;
#215 = CC_DESIGN_APPROVAL ( #196, ( #175 ) ) ;
#216 =( NAMED_UNIT ( * ) SI_UNIT ( $, .STERADIAN. ) SOLID_ANGLE_UNIT ( ) );
#217 = DATE_TIME_ROLE ( 'creation_date' ) ;
#218 = MANIFOLD_SOLID_BREP ( 'Boss-Extrude1', #282 ) ;
#219 = CC_DESIGN_PERSON_AND_ORGANIZATION_ASSIGNMENT ( #276, #331, ( #152 ) ) ;
#220 = DATE_AND_TIME ( #181, #131 ) ;
#221 = VERTEX_POINT ( 'NONE', #312 ) ;
#222 = PERSON ( 'UNSPECIFIED', 'UNSPECIFIED', 'UNSPECIFIED', ('UNSPECIFIED'), ('UNSPECIFIED'), ('UNSPECIFIED') ) ;
#223 = COORDINATED_UNIVERSAL_TIME_OFFSET ( 5, 0, .BEHIND. ) ;
#224 = DIRECTION ( 'NONE',  ( -0.0000000000000000000, -0.0000000000000000000, -1.000000000000000000 ) ) ;
#225 = CONTEXT_DEPENDENT_SHAPE_REPRESENTATION ( #112, #90 ) ;
#226 = AXIS2_PLACEMENT_3D ( 'NONE', #248, #332, #238 ) ;
#227 = CARTESIAN_POINT ( 'NONE',  ( 3.535533905932756400, -4.329780281177489400E-016, 2.500000000000000000 ) ) ;
#228 = CC_DESIGN_PERSON_AND_ORGANIZATION_ASSIGNMENT ( #65, #79, ( #120 ) ) ;
#229 = DATE_AND_TIME ( #16, #327 ) ;
#230 = PERSON_AND_ORGANIZATION_ROLE ( 'creator' ) ;
#231 = DIRECTION ( 'NONE',  ( -0.7071067811865512400, -0.7071067811865439100, 0.0000000000000000000 ) ) ;
#232 = EDGE_CURVE ( 'NONE', #165, #221, #44, .T. ) ;
#233 = VECTOR ( 'NONE', #77, 1000.000000000000000 ) ;
#234 = APPROVAL_PERSON_ORGANIZATION ( #64, #39, #314 ) ;
#235 = CARTESIAN_POINT ( 'NONE',  ( 2.167624834490815300E-016, 3.535533905932719100, 2.500000000000000000 ) ) ;
#236 = APPROVAL_DATE_TIME ( #339, #76 ) ;
#237 = AXIS2_PLACEMENT_3D ( 'NONE', #138, #262, #283 ) ;
#238 = DIRECTION ( 'NONE',  ( 1.000000000000000000, 0.0000000000000000000, 0.0000000000000000000 ) ) ;
#239 = DATE_AND_TIME ( #127, #139 ) ;
#240 = APPROVAL_PERSON_ORGANIZATION ( #23, #51, #243 ) ;
#241 = CC_DESIGN_PERSON_AND_ORGANIZATION_ASSIGNMENT ( #1, #348, ( #175 ) ) ;
#242 = APPROVAL_STATUS ( 'not_yet_approved' ) ;
#243 = APPROVAL_ROLE ( '' ) ;
#244 = CC_DESIGN_PERSON_AND_ORGANIZATION_ASSIGNMENT ( #254, #117, ( #152 ) ) ;
#245 = FACE_OUTER_BOUND ( 'NONE', #170, .T. ) ;
#246 = ITEM_DEFINED_TRANSFORMATION ( 'NONE', 'NONE', #286,  #226 ) ;
#247 = ITEM_DEFINED_TRANSFORMATION ( 'NONE', 'NONE', #303,  #226 ) ;
#248 = CARTESIAN_POINT ( 'NONE',  ( 0.0000000000000000000, 0.0000000000000000000, 0.0000000000000000000 ) ) ;
#249 = ORIENTED_EDGE ( 'NONE', *, *, #124, .F. ) ;
#250 = EDGE_CURVE ( 'NONE', #306, #301, #114, .T. ) ;
#251 = PRODUCT ( '5x5 Right Angle Prism Master', '5x5 Right Angle Prism Master', '', ( #318 ) ) ;
#252 = COORDINATED_UNIVERSAL_TIME_OFFSET ( 5, 0, .BEHIND. ) ;
#253 = CC_DESIGN_PERSON_AND_ORGANIZATION_ASSIGNMENT ( #265, #266, ( #175 ) ) ;
#254 = PERSON_AND_ORGANIZATION ( #222, #119 ) ;
#255 = DIRECTION ( 'NONE',  ( -0.0000000000000000000, -0.0000000000000000000, -1.000000000000000000 ) ) ;
#256 = SHAPE_REPRESENTATION ( '5x5 Right Angle Prism Master', ( #226 ), #193 ) ;
#257 = ADVANCED_FACE ( 'NONE', ( #105 ), #154, .F. ) ;
#258 = SECURITY_CLASSIFICATION ( '', '', #62 ) ;
#259 = APPLICATION_CONTEXT ( 'configuration controlled 3d designs of mechanical parts and assemblies' ) ;
#260 = VECTOR ( 'NONE', #68, 1000.000000000000000 ) ;
#261 = DATE_TIME_ROLE ( 'classification_date' ) ;
#262 = DIRECTION ( 'NONE',  ( 0.0000000000000000000, 0.0000000000000000000, 1.000000000000000000 ) ) ;
#263 = CARTESIAN_POINT ( 'NONE',  ( 2.167624834490815300E-016, 3.535533905932719100, 2.500000000000000000 ) ) ;
#264 = PRODUCT_DEFINITION_SHAPE ( 'NONE', 'NONE',  #25 ) ;
#265 = PERSON_AND_ORGANIZATION ( #222, #119 ) ;
#266 = PERSON_AND_ORGANIZATION_ROLE ( 'design_supplier' ) ;
#267 = DATE_AND_TIME ( #350, #41 ) ;
#268 =( REPRESENTATION_RELATIONSHIP ('NONE','NONE', #17, #256 ) REPRESENTATION_RELATIONSHIP_WITH_TRANSFORMATION ( #246 )SHAPE_REPRESENTATION_RELATIONSHIP( ) );
#269 = APPROVAL_DATE_TIME ( #220, #164 ) ;
#270 = AXIS2_PLACEMENT_3D ( 'NONE', #171, #295, #194 ) ;
#271 = FACE_OUTER_BOUND ( 'NONE', #123, .T. ) ;
#272 = VERTEX_POINT ( 'NONE', #263 ) ;
#273 = EDGE_CURVE ( 'NONE', #272, #13, #279, .T. ) ;
#274 = APPLICATION_PROTOCOL_DEFINITION ( 'international standard', 'config_control_design', 1994, #259 ) ;
#275 = APPROVAL_DATE_TIME ( #58, #196 ) ;
#276 = PERSON_AND_ORGANIZATION ( #222, #119 ) ;
#277 = UNCERTAINTY_MEASURE_WITH_UNIT (LENGTH_MEASURE( 1.000000000000000100E-005 ), #100, 'distance_accuracy_value', 'NONE');
#278 = SECURITY_CLASSIFICATION ( '', '', #294 ) ;
#279 = LINE ( 'NONE', #235, #334 ) ;
#280 = CC_DESIGN_PERSON_AND_ORGANIZATION_ASSIGNMENT ( #184, #12, ( #258 ) ) ;
#281 =( LENGTH_UNIT ( ) NAMED_UNIT ( * ) SI_UNIT ( .MILLI., .METRE. ) );
#282 = CLOSED_SHELL ( 'NONE', ( #134, #288, #33, #7, #257 ) ) ;
#283 = DIRECTION ( 'NONE',  ( 1.000000000000000000, 0.0000000000000000000, -0.0000000000000000000 ) ) ;
#284 = PERSON_AND_ORGANIZATION ( #222, #119 ) ;
#285 = APPROVAL_DATE_TIME ( #2, #316 ) ;
#286 = AXIS2_PLACEMENT_3D ( 'NONE', #202, #26, #304 ) ;
#287 = SECURITY_CLASSIFICATION_LEVEL ( 'unclassified' ) ;
#288 = ADVANCED_FACE ( 'NONE', ( #271 ), #161, .F. ) ;
#289 = VECTOR ( 'NONE', #341, 1000.000000000000000 ) ;
#290 = AXIS2_PLACEMENT_3D ( 'NONE', #126, #197, #342 ) ;
#291 = AXIS2_PLACEMENT_3D ( 'NONE', #48, #129, #57 ) ;
#292 = APPROVAL_PERSON_ORGANIZATION ( #284, #330, #85 ) ;
#293 = EDGE_CURVE ( 'NONE', #301, #272, #69, .T. ) ;
#294 = SECURITY_CLASSIFICATION_LEVEL ( 'unclassified' ) ;
#295 = DIRECTION ( 'NONE',  ( 0.0000000000000000000, 0.0000000000000000000, 1.000000000000000000 ) ) ;
#296 = CALENDAR_DATE ( 2017, 18, 7 ) ;
#297 = PERSON_AND_ORGANIZATION ( #222, #119 ) ;
#298 = CC_DESIGN_PERSON_AND_ORGANIZATION_ASSIGNMENT ( #125, #206, ( #278 ) ) ;
#299 = APPROVAL_STATUS ( 'not_yet_approved' ) ;
#300 = CC_DESIGN_DATE_AND_TIME_ASSIGNMENT ( #302, #320, ( #258 ) ) ;
#301 = VERTEX_POINT ( 'NONE', #101 ) ;
#302 = DATE_AND_TIME ( #70, #307 ) ;
#303 = AXIS2_PLACEMENT_3D ( 'NONE', #93, #172, #321 ) ;
#304 = DIRECTION ( 'NONE',  ( 1.000000000000000000, 0.0000000000000000000, 0.0000000000000000000 ) ) ;
#305 = CARTESIAN_POINT ( 'NONE',  ( -3.535533905932756400, 0.0000000000000000000, 2.500000000000000000 ) ) ;
#306 = VERTEX_POINT ( 'NONE', #191 ) ;
#307 = LOCAL_TIME ( 9, 26, 23.00000000000000000, #141 ) ;
#308 = CARTESIAN_POINT ( 'NONE',  ( 3.535533905932756400, -4.329780281177489400E-016, 2.500000000000000000 ) ) ;
#309 = LOCAL_TIME ( 9, 26, 23.00000000000000000, #22 ) ;
#310 = DATE_AND_TIME ( #355, #309 ) ;
#311 = CC_DESIGN_DATE_AND_TIME_ASSIGNMENT ( #347, #200, ( #278 ) ) ;
#312 = CARTESIAN_POINT ( 'NONE',  ( 3.535533905932756400, -4.329780281177489400E-016, -2.500000000000000000 ) ) ;
#313 = CARTESIAN_POINT ( 'NONE',  ( -3.535533905932756400, 0.0000000000000000000, 2.500000000000000000 ) ) ;
#314 = APPROVAL_ROLE ( '' ) ;
#315 = ORIENTED_EDGE ( 'NONE', *, *, #210, .T. ) ;
#316 = APPROVAL ( #209, 'UNSPECIFIED' ) ;
#317 = APPLICATION_CONTEXT ( 'configuration controlled 3d designs of mechanical parts and assemblies' ) ;
#318 = MECHANICAL_CONTEXT ( 'NONE', #259, 'mechanical' ) ;
#319 = ORIENTED_EDGE ( 'NONE', *, *, #293, .T. ) ;
#320 = DATE_TIME_ROLE ( 'classification_date' ) ;
#321 = DIRECTION ( 'NONE',  ( -1.000000000000000200, 0.0000000000000000000, 5.551115123125782700E-017 ) ) ;
#322 = APPROVAL_DATE_TIME ( #29, #330 ) ;
#323 = ORGANIZATION ( 'NAUO-ORG1', 'UNSPECIFIED', 'UNSPECIFIED' ) ;
#324 =( GEOMETRIC_REPRESENTATION_CONTEXT ( 3 ) GLOBAL_UNCERTAINTY_ASSIGNED_CONTEXT ( ( #277 ) ) GLOBAL_UNIT_ASSIGNED_CONTEXT ( ( #100, #43, #216 ) ) REPRESENTATION_CONTEXT ( 'NONE', 'WORKASPACE' ) );
#325 = ORIENTED_EDGE ( 'NONE', *, *, #210, .F. ) ;
#326 = PERSON_AND_ORGANIZATION ( #222, #119 ) ;
#327 = LOCAL_TIME ( 9, 26, 23.00000000000000000, #99 ) ;
#328 = DATE_TIME_ROLE ( 'classification_date' ) ;
#329 = LOCAL_TIME ( 9, 26, 23.00000000000000000, #102 ) ;
#330 = APPROVAL ( #167, 'UNSPECIFIED' ) ;
#331 = PERSON_AND_ORGANIZATION_ROLE ( 'creator' ) ;
#332 = DIRECTION ( 'NONE',  ( 0.0000000000000000000, 0.0000000000000000000, 1.000000000000000000 ) ) ;
#333 = CC_DESIGN_APPROVAL ( #316, ( #258 ) ) ;
#334 = VECTOR ( 'NONE', #224, 1000.000000000000000 ) ;
#335 = DIRECTION ( 'NONE',  ( 0.7071067811865512400, -0.7071067811865439100, 0.0000000000000000000 ) ) ;
#336 = CALENDAR_DATE ( 2017, 18, 7 ) ;
#337 = PERSON ( 'NAUO-PER1', 'UNSPECIFIED', 'UNSPECIFIED', ('UNSPECIFIED'), ('UNSPECIFIED'), ('UNSPECIFIED') ) ;
#338 = ADVANCED_BREP_SHAPE_REPRESENTATION ( '', ( #218, #226 ), #193 ) ;
#339 = DATE_AND_TIME ( #15, #71 ) ;
#340 = ORGANIZATION ( 'NAUO-ORG2', 'UNSPECIFIED', 'UNSPECIFIED' ) ;
#341 = DIRECTION ( 'NONE',  ( 1.000000000000000000, -6.123233995736766000E-017, 0.0000000000000000000 ) ) ;
#342 = DIRECTION ( 'NONE',  ( -1.000000000000000000, 6.123233995736766000E-017, 0.0000000000000000000 ) ) ;
#343 = VECTOR ( 'NONE', #346, 1000.000000000000000 ) ;
#344 = MECHANICAL_CONTEXT ( 'NONE', #106, 'mechanical' ) ;
#345 = ORIENTED_EDGE ( 'NONE', *, *, #124, .T. ) ;
#346 = DIRECTION ( 'NONE',  ( 1.000000000000000000, -6.123233995736766000E-017, 0.0000000000000000000 ) ) ;
#347 = DATE_AND_TIME ( #336, #36 ) ;
#348 = PERSON_AND_ORGANIZATION_ROLE ( 'creator' ) ;
#349 = APPROVAL_ROLE ( '' ) ;
#350 = CALENDAR_DATE ( 2017, 18, 7 ) ;
#351 = CC_DESIGN_APPROVAL ( #330, ( #278 ) ) ;
#352 = LINE ( 'NONE', #45, #199 ) ;
#353 = CC_DESIGN_SECURITY_CLASSIFICATION ( #258, ( #152 ) ) ;
#354 = PERSON_AND_ORGANIZATION_ROLE ( 'design_owner' ) ;
#355 = CALENDAR_DATE ( 2017, 18, 7 ) ;
#356 = PERSON_AND_ORGANIZATION ( #222, #119 ) ;
#357 = SHAPE_DEFINITION_REPRESENTATION ( #47, #17 ) ;
#358 = AXIS2_PLACEMENT_3D ( 'NONE', #28, #155, #188 ) ;
#359 = EDGE_LOOP ( 'NONE', ( #249, #177, #8 ) ) ;
#360 = NEXT_ASSEMBLY_USAGE_OCCURRENCE ( 'NAUO1', ' ', ' ', #61, #25, $ ) ;
#361 = NEXT_ASSEMBLY_USAGE_OCCURRENCE ( 'NAUO2', ' ', ' ', #61, #25, $ ) ;
ENDSEC;
END-ISO-10303-21;
