ISO-10303-21;
HEADER;
FILE_DESCRIPTION (( 'STEP AP203' ),
    '1' );
FILE_NAME ('Web Model 15425_15789.step',
    '2020-11-03T22:08:22',
    ( '' ),
    ( '' ),
    'SwSTEP 2.0',
    'SolidWorks 2018',
    '' );
FILE_SCHEMA (( 'CONFIG_CONTROL_DESIGN' ));
ENDSEC;

DATA;
#1 = ADVANCED_FACE ( 'NONE', ( #14 ), #61, .F. ) ;
#2 = COORDINATED_UNIVERSAL_TIME_OFFSET ( 5, 0, .BEHIND. ) ;
#3 = COORDINATED_UNIVERSAL_TIME_OFFSET ( 5, 0, .BEHIND. ) ;
#4 = DIRECTION ( 'NONE',  ( -1.000000000000000000, 0.0000000000000000000, 0.0000000000000000000 ) ) ;
#5 = VERTEX_POINT ( 'NONE', #152 ) ;
#6 = DATE_TIME_ROLE ( 'classification_date' ) ;
#7 = APPROVAL_STATUS ( 'not_yet_approved' ) ;
#8 = CIRCLE ( 'NONE', #60, 12.69999999999999929 ) ;
#9 = CARTESIAN_POINT ( 'NONE',  ( 12.69999999999999929, 1.555301434917138433E-15, 2.000000000000000000 ) ) ;
#10 = DIRECTION ( 'NONE',  ( 0.0000000000000000000, 0.0000000000000000000, 1.000000000000000000 ) ) ;
#11 = PERSON_AND_ORGANIZATION_ROLE ( 'creator' ) ;
#12 = CIRCLE ( 'NONE', #70, 12.69999999999999929 ) ;
#13 = DATE_AND_TIME ( #72, #124 ) ;
#14 = FACE_OUTER_BOUND ( 'NONE', #129, .T. ) ;
#15 = CC_DESIGN_APPROVAL ( #26, ( #47 ) ) ;
#16 = ADVANCED_FACE ( 'NONE', ( #144 ), #82, .T. ) ;
#17 = DIRECTION ( 'NONE',  ( 1.000000000000000000, 0.0000000000000000000, 0.0000000000000000000 ) ) ;
#18 = COORDINATED_UNIVERSAL_TIME_OFFSET ( 5, 0, .BEHIND. ) ;
#19 = EDGE_CURVE ( 'NONE', #170, #148, #172, .T. ) ;
#20 = CC_DESIGN_DATE_AND_TIME_ASSIGNMENT ( #68, #6, ( #31 ) ) ;
#21 = APPROVAL_ROLE ( '' ) ;
#22 = EDGE_LOOP ( 'NONE', ( #74, #159 ) ) ;
#23 =( NAMED_UNIT ( * ) SI_UNIT ( $, .STERADIAN. ) SOLID_ANGLE_UNIT ( ) );
#24 =( LENGTH_UNIT ( ) NAMED_UNIT ( * ) SI_UNIT ( .MILLI., .METRE. ) );
#25 = PERSON_AND_ORGANIZATION_ROLE ( 'design_supplier' ) ;
#26 = APPROVAL ( #112, 'UNSPECIFIED' ) ;
#27 = PERSON_AND_ORGANIZATION ( #40, #140 ) ;
#28 = LOCAL_TIME ( 17, 8, 22.00000000000000000, #3 ) ;
#29 = LINE ( 'NONE', #37, #80 ) ;
#30 = DIRECTION ( 'NONE',  ( 0.0000000000000000000, 0.0000000000000000000, 1.000000000000000000 ) ) ;
#31 = SECURITY_CLASSIFICATION ( '', '', #141 ) ;
#32 = PERSON_AND_ORGANIZATION ( #40, #140 ) ;
#33 = AXIS2_PLACEMENT_3D ( 'NONE', #96, #52, #120 ) ;
#34 = CARTESIAN_POINT ( 'NONE',  ( 0.0000000000000000000, 0.0000000000000000000, 0.0000000000000000000 ) ) ;
#35 = ORIENTED_EDGE ( 'NONE', *, *, #137, .T. ) ;
#36 =( NAMED_UNIT ( * ) PLANE_ANGLE_UNIT ( ) SI_UNIT ( $, .RADIAN. ) );
#37 = CARTESIAN_POINT ( 'NONE',  ( -12.69999999999999929, 0.0000000000000000000, 2.000000000000000000 ) ) ;
#38 = ORIENTED_EDGE ( 'NONE', *, *, #62, .T. ) ;
#39 = AXIS2_PLACEMENT_3D ( 'NONE', #63, #30, #165 ) ;
#40 = PERSON ( 'UNSPECIFIED', 'UNSPECIFIED', 'UNSPECIFIED', ('UNSPECIFIED'), ('UNSPECIFIED'), ('UNSPECIFIED') ) ;
#41 = LOCAL_TIME ( 17, 8, 22.00000000000000000, #150 ) ;
#42 = VERTEX_POINT ( 'NONE', #117 ) ;
#43 = APPROVAL_PERSON_ORGANIZATION ( #54, #26, #145 ) ;
#44 = ORIENTED_EDGE ( 'NONE', *, *, #137, .F. ) ;
#45 = PRODUCT ( 'Web Model 15425_15789', 'Web Model 15425_15789', '', ( #131 ) ) ;
#46 = CC_DESIGN_APPROVAL ( #160, ( #102 ) ) ;
#47 = PRODUCT_DEFINITION_FORMATION_WITH_SPECIFIED_SOURCE ( 'ANY', '', #45, .NOT_KNOWN. ) ;
#48 = PERSON_AND_ORGANIZATION_ROLE ( 'classification_officer' ) ;
#49 = FACE_OUTER_BOUND ( 'NONE', #22, .T. ) ;
#50 = DIRECTION ( 'NONE',  ( 1.000000000000000000, 0.0000000000000000000, 0.0000000000000000000 ) ) ;
#51 = DIRECTION ( 'NONE',  ( 1.000000000000000000, 0.0000000000000000000, 0.0000000000000000000 ) ) ;
#52 = DIRECTION ( 'NONE',  ( -0.0000000000000000000, -0.0000000000000000000, -1.000000000000000000 ) ) ;
#53 = APPROVAL_DATE_TIME ( #136, #164 ) ;
#54 = PERSON_AND_ORGANIZATION ( #40, #140 ) ;
#55 = AXIS2_PLACEMENT_3D ( 'NONE', #75, #155, #83 ) ;
#56 = PERSON_AND_ORGANIZATION ( #40, #140 ) ;
#57 = AXIS2_PLACEMENT_3D ( 'NONE', #104, #101, #17 ) ;
#58 = CALENDAR_DATE ( 2020, 3, 11 ) ;
#59 = ORIENTED_EDGE ( 'NONE', *, *, #149, .F. ) ;
#60 = AXIS2_PLACEMENT_3D ( 'NONE', #106, #10, #93 ) ;
#61 = PLANE ( 'NONE',  #39 ) ;
#62 = EDGE_CURVE ( 'NONE', #5, #42, #103, .T. ) ;
#63 = CARTESIAN_POINT ( 'NONE',  ( 0.0000000000000000000, 0.0000000000000000000, -2.000000000000000000 ) ) ;
#64 = DATE_AND_TIME ( #173, #125 ) ;
#65 = DIRECTION ( 'NONE',  ( 0.0000000000000000000, 0.0000000000000000000, 1.000000000000000000 ) ) ;
#66 = DIRECTION ( 'NONE',  ( 0.0000000000000000000, 0.0000000000000000000, 1.000000000000000000 ) ) ;
#67 = AXIS2_PLACEMENT_3D ( 'NONE', #34, #66, #133 ) ;
#68 = DATE_AND_TIME ( #146, #154 ) ;
#69 = DIRECTION ( 'NONE',  ( -0.0000000000000000000, -0.0000000000000000000, -1.000000000000000000 ) ) ;
#70 = AXIS2_PLACEMENT_3D ( 'NONE', #169, #81, #50 ) ;
#71 = EDGE_CURVE ( 'NONE', #148, #170, #8, .T. ) ;
#72 = CALENDAR_DATE ( 2020, 3, 11 ) ;
#73 = CLOSED_SHELL ( 'NONE', ( #16, #78, #77, #1 ) ) ;
#74 = ORIENTED_EDGE ( 'NONE', *, *, #71, .T. ) ;
#75 = CARTESIAN_POINT ( 'NONE',  ( 0.0000000000000000000, 0.0000000000000000000, 2.000000000000000000 ) ) ;
#76 = DIRECTION ( 'NONE',  ( -0.0000000000000000000, -0.0000000000000000000, -1.000000000000000000 ) ) ;
#77 = ADVANCED_FACE ( 'NONE', ( #49 ), #92, .T. ) ;
#78 = ADVANCED_FACE ( 'NONE', ( #116 ), #127, .T. ) ;
#79 = PERSON_AND_ORGANIZATION ( #40, #140 ) ;
#80 = VECTOR ( 'NONE', #142, 1000.000000000000000 ) ;
#81 = DIRECTION ( 'NONE',  ( 0.0000000000000000000, 0.0000000000000000000, 1.000000000000000000 ) ) ;
#82 = CYLINDRICAL_SURFACE ( 'NONE', #107, 12.69999999999999929 ) ;
#83 = DIRECTION ( 'NONE',  ( 1.000000000000000000, 0.0000000000000000000, -0.0000000000000000000 ) ) ;
#84 = APPLICATION_PROTOCOL_DEFINITION ( 'international standard', 'config_control_design', 1994, #108 ) ;
#85 = ADVANCED_BREP_SHAPE_REPRESENTATION ( 'Web Model 15425_15789', ( #130, #67 ), #90 ) ;
#86 = EDGE_LOOP ( 'NONE', ( #163, #121, #119, #44 ) ) ;
#87 = CC_DESIGN_DATE_AND_TIME_ASSIGNMENT ( #64, #122, ( #102 ) ) ;
#88 = DESIGN_CONTEXT ( 'detailed design', #143, 'design' ) ;
#89 = ORIENTED_EDGE ( 'NONE', *, *, #71, .F. ) ;
#90 =( GEOMETRIC_REPRESENTATION_CONTEXT ( 3 ) GLOBAL_UNCERTAINTY_ASSIGNED_CONTEXT ( ( #166 ) ) GLOBAL_UNIT_ASSIGNED_CONTEXT ( ( #24, #36, #23 ) ) REPRESENTATION_CONTEXT ( 'NONE', 'WORKASPACE' ) );
#91 = CALENDAR_DATE ( 2020, 3, 11 ) ;
#92 = PLANE ( 'NONE',  #55 ) ;
#93 = DIRECTION ( 'NONE',  ( 1.000000000000000000, 0.0000000000000000000, 0.0000000000000000000 ) ) ;
#94 = CARTESIAN_POINT ( 'NONE',  ( 12.69999999999999929, 1.555301434917138433E-15, 2.000000000000000000 ) ) ;
#95 = CC_DESIGN_APPROVAL ( #164, ( #31 ) ) ;
#96 = CARTESIAN_POINT ( 'NONE',  ( 0.0000000000000000000, 0.0000000000000000000, 2.000000000000000000 ) ) ;
#97 = APPROVAL_ROLE ( '' ) ;
#98 = CC_DESIGN_PERSON_AND_ORGANIZATION_ASSIGNMENT ( #138, #168, ( #47 ) ) ;
#99 = CC_DESIGN_PERSON_AND_ORGANIZATION_ASSIGNMENT ( #135, #132, ( #45 ) ) ;
#100 = APPROVAL_PERSON_ORGANIZATION ( #167, #160, #97 ) ;
#101 = DIRECTION ( 'NONE',  ( 0.0000000000000000000, 0.0000000000000000000, 1.000000000000000000 ) ) ;
#102 = PRODUCT_DEFINITION ( 'UNKNOWN', '', #47, #88 ) ;
#103 = CIRCLE ( 'NONE', #110, 12.69999999999999929 ) ;
#104 = CARTESIAN_POINT ( 'NONE',  ( 0.0000000000000000000, 0.0000000000000000000, 2.000000000000000000 ) ) ;
#105 = APPROVAL_STATUS ( 'not_yet_approved' ) ;
#106 = CARTESIAN_POINT ( 'NONE',  ( 0.0000000000000000000, 0.0000000000000000000, 2.000000000000000000 ) ) ;
#107 = AXIS2_PLACEMENT_3D ( 'NONE', #118, #76, #4 ) ;
#108 = APPLICATION_CONTEXT ( 'configuration controlled 3d designs of mechanical parts and assemblies' ) ;
#109 = ORIENTED_EDGE ( 'NONE', *, *, #62, .F. ) ;
#110 = AXIS2_PLACEMENT_3D ( 'NONE', #134, #65, #51 ) ;
#111 = CARTESIAN_POINT ( 'NONE',  ( -12.69999999999999929, 0.0000000000000000000, 2.000000000000000000 ) ) ;
#112 = APPROVAL_STATUS ( 'not_yet_approved' ) ;
#113 = PRODUCT_DEFINITION_SHAPE ( 'NONE', 'NONE',  #102 ) ;
#114 = LINE ( 'NONE', #94, #151 ) ;
#115 = EDGE_LOOP ( 'NONE', ( #59, #89, #35, #38 ) ) ;
#116 = FACE_OUTER_BOUND ( 'NONE', #115, .T. ) ;
#117 = CARTESIAN_POINT ( 'NONE',  ( 12.69999999999999929, 1.555301434917138433E-15, -2.000000000000000000 ) ) ;
#118 = CARTESIAN_POINT ( 'NONE',  ( 0.0000000000000000000, 0.0000000000000000000, 2.000000000000000000 ) ) ;
#119 = ORIENTED_EDGE ( 'NONE', *, *, #128, .T. ) ;
#120 = DIRECTION ( 'NONE',  ( -1.000000000000000000, 0.0000000000000000000, 0.0000000000000000000 ) ) ;
#121 = ORIENTED_EDGE ( 'NONE', *, *, #149, .T. ) ;
#122 = DATE_TIME_ROLE ( 'creation_date' ) ;
#123 = DATE_AND_TIME ( #58, #28 ) ;
#124 = LOCAL_TIME ( 17, 8, 22.00000000000000000, #156 ) ;
#125 = LOCAL_TIME ( 17, 8, 22.00000000000000000, #18 ) ;
#126 = CC_DESIGN_PERSON_AND_ORGANIZATION_ASSIGNMENT ( #79, #25, ( #47 ) ) ;
#127 = CYLINDRICAL_SURFACE ( 'NONE', #33, 12.69999999999999929 ) ;
#128 = EDGE_CURVE ( 'NONE', #42, #5, #12, .T. ) ;
#129 = EDGE_LOOP ( 'NONE', ( #109, #175 ) ) ;
#130 = MANIFOLD_SOLID_BREP ( 'Boss-Extrude1', #73 ) ;
#131 = MECHANICAL_CONTEXT ( 'NONE', #108, 'mechanical' ) ;
#132 = PERSON_AND_ORGANIZATION_ROLE ( 'design_owner' ) ;
#133 = DIRECTION ( 'NONE',  ( 1.000000000000000000, 0.0000000000000000000, 0.0000000000000000000 ) ) ;
#134 = CARTESIAN_POINT ( 'NONE',  ( 0.0000000000000000000, 0.0000000000000000000, -2.000000000000000000 ) ) ;
#135 = PERSON_AND_ORGANIZATION ( #40, #140 ) ;
#136 = DATE_AND_TIME ( #91, #41 ) ;
#137 = EDGE_CURVE ( 'NONE', #148, #5, #29, .T. ) ;
#138 = PERSON_AND_ORGANIZATION ( #40, #140 ) ;
#139 = PRODUCT_RELATED_PRODUCT_CATEGORY ( 'detail', '', ( #45 ) ) ;
#140 = ORGANIZATION ( 'UNSPECIFIED', 'UNSPECIFIED', '' ) ;
#141 = SECURITY_CLASSIFICATION_LEVEL ( 'unclassified' ) ;
#142 = DIRECTION ( 'NONE',  ( -0.0000000000000000000, -0.0000000000000000000, -1.000000000000000000 ) ) ;
#143 = APPLICATION_CONTEXT ( 'configuration controlled 3d designs of mechanical parts and assemblies' ) ;
#144 = FACE_OUTER_BOUND ( 'NONE', #86, .T. ) ;
#145 = APPROVAL_ROLE ( '' ) ;
#146 = CALENDAR_DATE ( 2020, 3, 11 ) ;
#147 = APPROVAL_DATE_TIME ( #123, #26 ) ;
#148 = VERTEX_POINT ( 'NONE', #111 ) ;
#149 = EDGE_CURVE ( 'NONE', #170, #42, #114, .T. ) ;
#150 = COORDINATED_UNIVERSAL_TIME_OFFSET ( 5, 0, .BEHIND. ) ;
#151 = VECTOR ( 'NONE', #69, 1000.000000000000000 ) ;
#152 = CARTESIAN_POINT ( 'NONE',  ( -12.69999999999999929, 0.0000000000000000000, -2.000000000000000000 ) ) ;
#153 = CC_DESIGN_SECURITY_CLASSIFICATION ( #31, ( #47 ) ) ;
#154 = LOCAL_TIME ( 17, 8, 22.00000000000000000, #2 ) ;
#155 = DIRECTION ( 'NONE',  ( 0.0000000000000000000, 0.0000000000000000000, 1.000000000000000000 ) ) ;
#156 = COORDINATED_UNIVERSAL_TIME_OFFSET ( 5, 0, .BEHIND. ) ;
#157 = CC_DESIGN_PERSON_AND_ORGANIZATION_ASSIGNMENT ( #56, #11, ( #102 ) ) ;
#158 = CC_DESIGN_PERSON_AND_ORGANIZATION_ASSIGNMENT ( #32, #48, ( #31 ) ) ;
#159 = ORIENTED_EDGE ( 'NONE', *, *, #19, .T. ) ;
#160 = APPROVAL ( #7, 'UNSPECIFIED' ) ;
#161 = APPROVAL_DATE_TIME ( #13, #160 ) ;
#162 = APPROVAL_PERSON_ORGANIZATION ( #27, #164, #21 ) ;
#163 = ORIENTED_EDGE ( 'NONE', *, *, #19, .F. ) ;
#164 = APPROVAL ( #105, 'UNSPECIFIED' ) ;
#165 = DIRECTION ( 'NONE',  ( 1.000000000000000000, 0.0000000000000000000, -0.0000000000000000000 ) ) ;
#166 = UNCERTAINTY_MEASURE_WITH_UNIT (LENGTH_MEASURE( 1.000000000000000082E-05 ), #24, 'distance_accuracy_value', 'NONE');
#167 = PERSON_AND_ORGANIZATION ( #40, #140 ) ;
#168 = PERSON_AND_ORGANIZATION_ROLE ( 'creator' ) ;
#169 = CARTESIAN_POINT ( 'NONE',  ( 0.0000000000000000000, 0.0000000000000000000, -2.000000000000000000 ) ) ;
#170 = VERTEX_POINT ( 'NONE', #9 ) ;
#171 = APPLICATION_PROTOCOL_DEFINITION ( 'international standard', 'config_control_design', 1994, #143 ) ;
#172 = CIRCLE ( 'NONE', #57, 12.69999999999999929 ) ;
#173 = CALENDAR_DATE ( 2020, 3, 11 ) ;
#174 = SHAPE_DEFINITION_REPRESENTATION ( #113, #85 ) ;
#175 = ORIENTED_EDGE ( 'NONE', *, *, #128, .F. ) ;
ENDSEC;
END-ISO-10303-21;
