ISO-10303-21;
HEADER;
FILE_DESCRIPTION (( 'STEP AP203' ),
    '1' );
FILE_NAME ('Web Model 14965_18330.step',
    '2021-06-28T15:45:57',
    ( '' ),
    ( '' ),
    'SwSTEP 2.0',
    'SolidWorks 2018',
    '' );
FILE_SCHEMA (( 'CONFIG_CONTROL_DESIGN' ));
ENDSEC;

DATA;
#1 = PLANE ( 'NONE',  #21 ) ;
#2 = APPROVAL_STATUS ( 'not_yet_approved' ) ;
#3 = LOCAL_TIME ( 11, 45, 57.00000000000000000, #68 ) ;
#4 = ORIENTED_EDGE ( 'NONE', *, *, #92, .F. ) ;
#5 = AXIS2_PLACEMENT_3D ( 'NONE', #119, #126, #163 ) ;
#6 = PERSON_AND_ORGANIZATION ( #111, #124 ) ;
#7 = CARTESIAN_POINT ( 'NONE',  ( 2.000000000000000000, 0.000000000000000000, 0.000000000000000000 ) ) ;
#8 = SECURITY_CLASSIFICATION ( '', '', #93 ) ;
#9 = DIRECTION ( 'NONE',  ( 0.000000000000000000, 0.000000000000000000, -1.000000000000000000 ) ) ;
#10 = CC_DESIGN_APPROVAL ( #154, ( #42 ) ) ;
#11 = CARTESIAN_POINT ( 'NONE',  ( 2.000000000000000000, 0.000000000000000000, 0.000000000000000000 ) ) ;
#12 = PERSON_AND_ORGANIZATION ( #111, #124 ) ;
#13 = CIRCLE ( 'NONE', #135, 20.00000000000000000 ) ;
#14 = CIRCLE ( 'NONE', #41, 20.00000000000000000 ) ;
#15 = VERTEX_POINT ( 'NONE', #133 ) ;
#16 = CLOSED_SHELL ( 'NONE', ( #82, #39, #95, #140 ) ) ;
#17 = CARTESIAN_POINT ( 'NONE',  ( 2.000000000000000000, 0.000000000000000000, 0.000000000000000000 ) ) ;
#18 = PRODUCT_RELATED_PRODUCT_CATEGORY ( 'detail', '', ( #30 ) ) ;
#19 = CARTESIAN_POINT ( 'NONE',  ( 2.000000000000000000, 2.449293598294706513E-15, -20.00000000000000000 ) ) ;
#20 =( LENGTH_UNIT ( ) NAMED_UNIT ( * ) SI_UNIT ( .MILLI., .METRE. ) );
#21 = AXIS2_PLACEMENT_3D ( 'NONE', #158, #62, #170 ) ;
#22 = VERTEX_POINT ( 'NONE', #63 ) ;
#23 = DIRECTION ( 'NONE',  ( 0.000000000000000000, 0.000000000000000000, 1.000000000000000000 ) ) ;
#24 = APPROVAL_ROLE ( '' ) ;
#25 = VECTOR ( 'NONE', #157, 1000.000000000000000 ) ;
#26 = ORIENTED_EDGE ( 'NONE', *, *, #85, .T. ) ;
#27 = LOCAL_TIME ( 11, 45, 57.00000000000000000, #65 ) ;
#28 = PRODUCT_DEFINITION_SHAPE ( 'NONE', 'NONE',  #84 ) ;
#29 = CARTESIAN_POINT ( 'NONE',  ( 2.000000000000000000, 0.000000000000000000, 20.00000000000000000 ) ) ;
#30 = PRODUCT ( 'Web Model 14965_18330', 'Web Model 14965_18330', '', ( #174 ) ) ;
#31 =( NAMED_UNIT ( * ) PLANE_ANGLE_UNIT ( ) SI_UNIT ( $, .RADIAN. ) );
#32 = CC_DESIGN_PERSON_AND_ORGANIZATION_ASSIGNMENT ( #142, #87, ( #30 ) ) ;
#33 = ADVANCED_BREP_SHAPE_REPRESENTATION ( 'Web Model 14965_18330', ( #171, #97 ), #143 ) ;
#34 = ORIENTED_EDGE ( 'NONE', *, *, #98, .T. ) ;
#35 = PERSON_AND_ORGANIZATION ( #111, #124 ) ;
#36 = APPLICATION_PROTOCOL_DEFINITION ( 'international standard', 'config_control_design', 1994, #101 ) ;
#37 = DATE_AND_TIME ( #144, #3 ) ;
#38 = CIRCLE ( 'NONE', #5, 20.00000000000000000 ) ;
#39 = ADVANCED_FACE ( 'NONE', ( #136 ), #76, .T. ) ;
#40 = COORDINATED_UNIVERSAL_TIME_OFFSET ( 5, 0, .BEHIND. ) ;
#41 = AXIS2_PLACEMENT_3D ( 'NONE', #118, #146, #44 ) ;
#42 = PRODUCT_DEFINITION_FORMATION_WITH_SPECIFIED_SOURCE ( 'ANY', '', #30, .NOT_KNOWN. ) ;
#43 = CALENDAR_DATE ( 2021, 28, 6 ) ;
#44 = DIRECTION ( 'NONE',  ( 0.000000000000000000, 0.000000000000000000, -1.000000000000000000 ) ) ;
#45 = DATE_AND_TIME ( #71, #110 ) ;
#46 = DIRECTION ( 'NONE',  ( 1.000000000000000000, 0.000000000000000000, 0.000000000000000000 ) ) ;
#47 = FACE_OUTER_BOUND ( 'NONE', #159, .T. ) ;
#48 = CC_DESIGN_APPROVAL ( #122, ( #8 ) ) ;
#49 = APPROVAL_STATUS ( 'not_yet_approved' ) ;
#50 = DIRECTION ( 'NONE',  ( 1.000000000000000000, 0.000000000000000000, 0.000000000000000000 ) ) ;
#51 = PERSON_AND_ORGANIZATION_ROLE ( 'creator' ) ;
#52 = PERSON_AND_ORGANIZATION ( #111, #124 ) ;
#53 = PERSON_AND_ORGANIZATION_ROLE ( 'design_supplier' ) ;
#54 = CIRCLE ( 'NONE', #67, 20.00000000000000000 ) ;
#55 = LINE ( 'NONE', #19, #156 ) ;
#56 = DESIGN_CONTEXT ( 'detailed design', #101, 'design' ) ;
#57 = PLANE ( 'NONE',  #79 ) ;
#58 = APPLICATION_PROTOCOL_DEFINITION ( 'international standard', 'config_control_design', 1994, #89 ) ;
#59 = VERTEX_POINT ( 'NONE', #78 ) ;
#60 = DATE_AND_TIME ( #139, #27 ) ;
#61 = APPROVAL ( #49, 'UNSPECIFIED' ) ;
#62 = DIRECTION ( 'NONE',  ( 1.000000000000000000, 0.000000000000000000, 0.000000000000000000 ) ) ;
#63 = CARTESIAN_POINT ( 'NONE',  ( 2.000000000000000000, 0.000000000000000000, 20.00000000000000000 ) ) ;
#64 = PERSON_AND_ORGANIZATION_ROLE ( 'classification_officer' ) ;
#65 = COORDINATED_UNIVERSAL_TIME_OFFSET ( 5, 0, .BEHIND. ) ;
#66 = APPROVAL_DATE_TIME ( #115, #122 ) ;
#67 = AXIS2_PLACEMENT_3D ( 'NONE', #11, #99, #134 ) ;
#68 = COORDINATED_UNIVERSAL_TIME_OFFSET ( 5, 0, .BEHIND. ) ;
#69 = APPROVAL_PERSON_ORGANIZATION ( #35, #122, #138 ) ;
#70 = ORIENTED_EDGE ( 'NONE', *, *, #102, .F. ) ;
#71 = CALENDAR_DATE ( 2021, 28, 6 ) ;
#72 = CC_DESIGN_DATE_AND_TIME_ASSIGNMENT ( #37, #137, ( #84 ) ) ;
#73 = PERSON_AND_ORGANIZATION ( #111, #124 ) ;
#74 = CARTESIAN_POINT ( 'NONE',  ( 0.000000000000000000, 0.000000000000000000, 0.000000000000000000 ) ) ;
#75 = DIRECTION ( 'NONE',  ( 1.000000000000000000, 0.000000000000000000, 0.000000000000000000 ) ) ;
#76 = CYLINDRICAL_SURFACE ( 'NONE', #117, 20.00000000000000000 ) ;
#77 = PERSON_AND_ORGANIZATION ( #111, #124 ) ;
#78 = CARTESIAN_POINT ( 'NONE',  ( 2.000000000000000000, 2.449293598294706513E-15, -20.00000000000000000 ) ) ;
#79 = AXIS2_PLACEMENT_3D ( 'NONE', #7, #50, #113 ) ;
#80 = EDGE_LOOP ( 'NONE', ( #128, #175, #96, #34 ) ) ;
#81 = PERSON_AND_ORGANIZATION_ROLE ( 'creator' ) ;
#82 = ADVANCED_FACE ( 'NONE', ( #169 ), #123, .T. ) ;
#83 = LOCAL_TIME ( 11, 45, 57.00000000000000000, #120 ) ;
#84 = PRODUCT_DEFINITION ( 'UNKNOWN', '', #42, #56 ) ;
#85 = EDGE_CURVE ( 'NONE', #22, #59, #54, .T. ) ;
#86 = DIRECTION ( 'NONE',  ( -1.000000000000000000, -0.000000000000000000, -0.000000000000000000 ) ) ;
#87 = PERSON_AND_ORGANIZATION_ROLE ( 'design_owner' ) ;
#88 = EDGE_LOOP ( 'NONE', ( #26, #147 ) ) ;
#89 = APPLICATION_CONTEXT ( 'configuration controlled 3d designs of mechanical parts and assemblies' ) ;
#90 = CC_DESIGN_PERSON_AND_ORGANIZATION_ASSIGNMENT ( #6, #53, ( #42 ) ) ;
#91 = APPROVAL_STATUS ( 'not_yet_approved' ) ;
#92 = EDGE_CURVE ( 'NONE', #59, #22, #38, .T. ) ;
#93 = SECURITY_CLASSIFICATION_LEVEL ( 'unclassified' ) ;
#94 = ORIENTED_EDGE ( 'NONE', *, *, #160, .T. ) ;
#95 = ADVANCED_FACE ( 'NONE', ( #112 ), #57, .T. ) ;
#96 = ORIENTED_EDGE ( 'NONE', *, *, #102, .T. ) ;
#97 = AXIS2_PLACEMENT_3D ( 'NONE', #74, #172, #75 ) ;
#98 = EDGE_CURVE ( 'NONE', #130, #15, #14, .T. ) ;
#99 = DIRECTION ( 'NONE',  ( 1.000000000000000000, 0.000000000000000000, 0.000000000000000000 ) ) ;
#100 = CARTESIAN_POINT ( 'NONE',  ( 2.000000000000000000, 0.000000000000000000, 0.000000000000000000 ) ) ;
#101 = APPLICATION_CONTEXT ( 'configuration controlled 3d designs of mechanical parts and assemblies' ) ;
#102 = EDGE_CURVE ( 'NONE', #22, #130, #167, .T. ) ;
#103 = CC_DESIGN_DATE_AND_TIME_ASSIGNMENT ( #45, #165, ( #8 ) ) ;
#104 = APPROVAL_PERSON_ORGANIZATION ( #52, #61, #149 ) ;
#105 = COORDINATED_UNIVERSAL_TIME_OFFSET ( 5, 0, .BEHIND. ) ;
#106 = PERSON_AND_ORGANIZATION ( #111, #124 ) ;
#107 = AXIS2_PLACEMENT_3D ( 'NONE', #100, #145, #150 ) ;
#108 = CC_DESIGN_PERSON_AND_ORGANIZATION_ASSIGNMENT ( #106, #81, ( #84 ) ) ;
#109 = APPROVAL_DATE_TIME ( #114, #154 ) ;
#110 = LOCAL_TIME ( 11, 45, 57.00000000000000000, #40 ) ;
#111 = PERSON ( 'UNSPECIFIED', 'UNSPECIFIED', 'UNSPECIFIED', ('UNSPECIFIED'), ('UNSPECIFIED'), ('UNSPECIFIED') ) ;
#112 = FACE_OUTER_BOUND ( 'NONE', #88, .T. ) ;
#113 = DIRECTION ( 'NONE',  ( 0.000000000000000000, 0.000000000000000000, -1.000000000000000000 ) ) ;
#114 = DATE_AND_TIME ( #43, #83 ) ;
#115 = DATE_AND_TIME ( #131, #148 ) ;
#116 = DIRECTION ( 'NONE',  ( -1.000000000000000000, -0.000000000000000000, -0.000000000000000000 ) ) ;
#117 = AXIS2_PLACEMENT_3D ( 'NONE', #17, #86, #23 ) ;
#118 = CARTESIAN_POINT ( 'NONE',  ( -2.000000000000000000, 0.000000000000000000, 0.000000000000000000 ) ) ;
#119 = CARTESIAN_POINT ( 'NONE',  ( 2.000000000000000000, 0.000000000000000000, 0.000000000000000000 ) ) ;
#120 = COORDINATED_UNIVERSAL_TIME_OFFSET ( 5, 0, .BEHIND. ) ;
#121 = CARTESIAN_POINT ( 'NONE',  ( -2.000000000000000000, 0.000000000000000000, 20.00000000000000000 ) ) ;
#122 = APPROVAL ( #2, 'UNSPECIFIED' ) ;
#123 = CYLINDRICAL_SURFACE ( 'NONE', #107, 20.00000000000000000 ) ;
#124 = ORGANIZATION ( 'UNSPECIFIED', 'UNSPECIFIED', '' ) ;
#125 = EDGE_CURVE ( 'NONE', #15, #130, #13, .T. ) ;
#126 = DIRECTION ( 'NONE',  ( 1.000000000000000000, 0.000000000000000000, 0.000000000000000000 ) ) ;
#127 =( NAMED_UNIT ( * ) SI_UNIT ( $, .STERADIAN. ) SOLID_ANGLE_UNIT ( ) );
#128 = ORIENTED_EDGE ( 'NONE', *, *, #160, .F. ) ;
#129 = CC_DESIGN_APPROVAL ( #61, ( #84 ) ) ;
#130 = VERTEX_POINT ( 'NONE', #121 ) ;
#131 = CALENDAR_DATE ( 2021, 28, 6 ) ;
#132 = CARTESIAN_POINT ( 'NONE',  ( -2.000000000000000000, 0.000000000000000000, 0.000000000000000000 ) ) ;
#133 = CARTESIAN_POINT ( 'NONE',  ( -2.000000000000000000, 2.449293598294706513E-15, -20.00000000000000000 ) ) ;
#134 = DIRECTION ( 'NONE',  ( 0.000000000000000000, 0.000000000000000000, -1.000000000000000000 ) ) ;
#135 = AXIS2_PLACEMENT_3D ( 'NONE', #132, #46, #9 ) ;
#136 = FACE_OUTER_BOUND ( 'NONE', #80, .T. ) ;
#137 = DATE_TIME_ROLE ( 'creation_date' ) ;
#138 = APPROVAL_ROLE ( '' ) ;
#139 = CALENDAR_DATE ( 2021, 28, 6 ) ;
#140 = ADVANCED_FACE ( 'NONE', ( #47 ), #1, .F. ) ;
#141 = ORIENTED_EDGE ( 'NONE', *, *, #125, .F. ) ;
#142 = PERSON_AND_ORGANIZATION ( #111, #124 ) ;
#143 =( GEOMETRIC_REPRESENTATION_CONTEXT ( 3 ) GLOBAL_UNCERTAINTY_ASSIGNED_CONTEXT ( ( #153 ) ) GLOBAL_UNIT_ASSIGNED_CONTEXT ( ( #20, #31, #127 ) ) REPRESENTATION_CONTEXT ( 'NONE', 'WORKASPACE' ) );
#144 = CALENDAR_DATE ( 2021, 28, 6 ) ;
#145 = DIRECTION ( 'NONE',  ( -1.000000000000000000, -0.000000000000000000, -0.000000000000000000 ) ) ;
#146 = DIRECTION ( 'NONE',  ( 1.000000000000000000, 0.000000000000000000, 0.000000000000000000 ) ) ;
#147 = ORIENTED_EDGE ( 'NONE', *, *, #92, .T. ) ;
#148 = LOCAL_TIME ( 11, 45, 57.00000000000000000, #105 ) ;
#149 = APPROVAL_ROLE ( '' ) ;
#150 = DIRECTION ( 'NONE',  ( 0.000000000000000000, 0.000000000000000000, 1.000000000000000000 ) ) ;
#151 = APPROVAL_DATE_TIME ( #60, #61 ) ;
#152 = CC_DESIGN_SECURITY_CLASSIFICATION ( #8, ( #42 ) ) ;
#153 = UNCERTAINTY_MEASURE_WITH_UNIT (LENGTH_MEASURE( 1.000000000000000082E-05 ), #20, 'distance_accuracy_value', 'NONE');
#154 = APPROVAL ( #91, 'UNSPECIFIED' ) ;
#155 = APPROVAL_PERSON_ORGANIZATION ( #12, #154, #24 ) ;
#156 = VECTOR ( 'NONE', #116, 1000.000000000000000 ) ;
#157 = DIRECTION ( 'NONE',  ( -1.000000000000000000, -0.000000000000000000, -0.000000000000000000 ) ) ;
#158 = CARTESIAN_POINT ( 'NONE',  ( -2.000000000000000000, 0.000000000000000000, 0.000000000000000000 ) ) ;
#159 = EDGE_LOOP ( 'NONE', ( #173, #141 ) ) ;
#160 = EDGE_CURVE ( 'NONE', #59, #15, #55, .T. ) ;
#161 = CC_DESIGN_PERSON_AND_ORGANIZATION_ASSIGNMENT ( #73, #64, ( #8 ) ) ;
#162 = ORIENTED_EDGE ( 'NONE', *, *, #125, .T. ) ;
#163 = DIRECTION ( 'NONE',  ( 0.000000000000000000, 0.000000000000000000, -1.000000000000000000 ) ) ;
#164 = SHAPE_DEFINITION_REPRESENTATION ( #28, #33 ) ;
#165 = DATE_TIME_ROLE ( 'classification_date' ) ;
#166 = EDGE_LOOP ( 'NONE', ( #4, #94, #162, #70 ) ) ;
#167 = LINE ( 'NONE', #29, #25 ) ;
#168 = CC_DESIGN_PERSON_AND_ORGANIZATION_ASSIGNMENT ( #77, #51, ( #42 ) ) ;
#169 = FACE_OUTER_BOUND ( 'NONE', #166, .T. ) ;
#170 = DIRECTION ( 'NONE',  ( 0.000000000000000000, 0.000000000000000000, -1.000000000000000000 ) ) ;
#171 = MANIFOLD_SOLID_BREP ( 'Boss-Extrude1', #16 ) ;
#172 = DIRECTION ( 'NONE',  ( 0.000000000000000000, 0.000000000000000000, 1.000000000000000000 ) ) ;
#173 = ORIENTED_EDGE ( 'NONE', *, *, #98, .F. ) ;
#174 = MECHANICAL_CONTEXT ( 'NONE', #89, 'mechanical' ) ;
#175 = ORIENTED_EDGE ( 'NONE', *, *, #85, .F. ) ;
ENDSEC;
END-ISO-10303-21;
