ISO-10303-21;
HEADER;
FILE_DESCRIPTION (( 'STEP AP203' ),
    '1' );
FILE_NAME ('Web Model 46700.STEP',
    '2017-01-31T15:19:39',
    ( '' ),
    ( '' ),
    'SwSTEP 2.0',
    'SolidWorks 2016',
    '' );
FILE_SCHEMA (( 'CONFIG_CONTROL_DESIGN' ));
ENDSEC;

DATA;
#1 = DATE_TIME_ROLE ( 'creation_date' ) ;
#2 = EDGE_LOOP ( 'NONE', ( #186, #73, #109, #176 ) ) ;
#3 = CC_DESIGN_PERSON_AND_ORGANIZATION_ASSIGNMENT ( #222, #126, ( #88 ) ) ;
#4 = LINE ( 'NONE', #117, #141 ) ;
#5 = ORIENTED_EDGE ( 'NONE', *, *, #206, .T. ) ;
#6 = ORIENTED_EDGE ( 'NONE', *, *, #182, .F. ) ;
#7 = CALENDAR_DATE ( 2017, 31, 1 ) ;
#8 = APPROVAL ( #170, 'UNSPECIFIED' ) ;
#9 = FACE_OUTER_BOUND ( 'NONE', #166, .T. ) ;
#10 = DIRECTION ( 'NONE',  ( 0.0000000000000000000, 0.0000000000000000000, 1.000000000000000000 ) ) ;
#11 = FACE_OUTER_BOUND ( 'NONE', #226, .T. ) ;
#12 = ORIENTED_EDGE ( 'NONE', *, *, #202, .F. ) ;
#13 = CC_DESIGN_PERSON_AND_ORGANIZATION_ASSIGNMENT ( #16, #22, ( #107 ) ) ;
#14 = DIRECTION ( 'NONE',  ( 1.000000000000000000, 1.406532548089303500E-016, -0.0000000000000000000 ) ) ;
#15 = VERTEX_POINT ( 'NONE', #34 ) ;
#16 = PERSON_AND_ORGANIZATION ( #197, #228 ) ;
#17 = CARTESIAN_POINT ( 'NONE',  ( -9.999999999999998200, -18.49999999999999600, 1.000000000000000000 ) ) ;
#18 = DIRECTION ( 'NONE',  ( 1.000000000000000000, 0.0000000000000000000, 0.0000000000000000000 ) ) ;
#19 = LOCAL_TIME ( 10, 19, 39.00000000000000000, #203 ) ;
#20 = EDGE_CURVE ( 'NONE', #175, #127, #119, .T. ) ;
#21 = AXIS2_PLACEMENT_3D ( 'NONE', #100, #184, #89 ) ;
#22 = PERSON_AND_ORGANIZATION_ROLE ( 'classification_officer' ) ;
#23 = LINE ( 'NONE', #165, #199 ) ;
#24 = APPROVAL_ROLE ( '' ) ;
#25 = LOCAL_TIME ( 10, 19, 39.00000000000000000, #78 ) ;
#26 = ORIENTED_EDGE ( 'NONE', *, *, #231, .F. ) ;
#27 = ADVANCED_BREP_SHAPE_REPRESENTATION ( 'Web Model 46700', ( #80, #164 ), #147 ) ;
#28 = LINE ( 'NONE', #77, #150 ) ;
#29 = APPROVAL_PERSON_ORGANIZATION ( #113, #61, #168 ) ;
#30 = CARTESIAN_POINT ( 'NONE',  ( 10.00000000000000200, -18.49999999999999600, 0.0000000000000000000 ) ) ;
#31 = VECTOR ( 'NONE', #163, 1000.000000000000000 ) ;
#32 = DIRECTION ( 'NONE',  ( -1.000000000000000000, -1.406532548089303500E-016, 0.0000000000000000000 ) ) ;
#33 = CC_DESIGN_PERSON_AND_ORGANIZATION_ASSIGNMENT ( #106, #42, ( #70 ) ) ;
#34 = CARTESIAN_POINT ( 'NONE',  ( -9.999999999999998200, -18.49999999999999600, 0.0000000000000000000 ) ) ;
#35 = CALENDAR_DATE ( 2017, 31, 1 ) ;
#36 = CARTESIAN_POINT ( 'NONE',  ( -9.999999999999998200, -18.49999999999999600, 1.000000000000000000 ) ) ;
#37 = DIRECTION ( 'NONE',  ( 0.0000000000000000000, -0.0000000000000000000, 1.000000000000000000 ) ) ;
#38 = DIRECTION ( 'NONE',  ( 0.0000000000000000000, 1.000000000000000000, 0.0000000000000000000 ) ) ;
#39 = LINE ( 'NONE', #55, #64 ) ;
#40 = LINE ( 'NONE', #36, #232 ) ;
#41 = MECHANICAL_CONTEXT ( 'NONE', #227, 'mechanical' ) ;
#42 = PERSON_AND_ORGANIZATION_ROLE ( 'creator' ) ;
#43 = EDGE_LOOP ( 'NONE', ( #82, #204, #52, #213 ) ) ;
#44 = APPROVAL_DATE_TIME ( #138, #156 ) ;
#45 = VECTOR ( 'NONE', #18, 1000.000000000000000 ) ;
#46 = VERTEX_POINT ( 'NONE', #216 ) ;
#47 = LINE ( 'NONE', #143, #31 ) ;
#48 = ORIENTED_EDGE ( 'NONE', *, *, #68, .T. ) ;
#49 = CC_DESIGN_SECURITY_CLASSIFICATION ( #107, ( #70 ) ) ;
#50 = EDGE_LOOP ( 'NONE', ( #123, #12, #133, #229 ) ) ;
#51 = CARTESIAN_POINT ( 'NONE',  ( 10.00000000000000200, -18.49999999999999600, 0.0000000000000000000 ) ) ;
#52 = ORIENTED_EDGE ( 'NONE', *, *, #98, .T. ) ;
#53 = DIRECTION ( 'NONE',  ( 0.0000000000000000000, -1.000000000000000000, 0.0000000000000000000 ) ) ;
#54 = VECTOR ( 'NONE', #115, 1000.000000000000000 ) ;
#55 = CARTESIAN_POINT ( 'NONE',  ( 9.999999999999996400, 18.50000000000000000, 0.0000000000000000000 ) ) ;
#56 =( NAMED_UNIT ( * ) SI_UNIT ( $, .STERADIAN. ) SOLID_ANGLE_UNIT ( ) );
#57 = EDGE_LOOP ( 'NONE', ( #194, #146, #211, #48 ) ) ;
#58 = APPROVAL_PERSON_ORGANIZATION ( #142, #8, #24 ) ;
#59 = PERSON_AND_ORGANIZATION_ROLE ( 'design_supplier' ) ;
#60 = VECTOR ( 'NONE', #198, 1000.000000000000000 ) ;
#61 = APPROVAL ( #129, 'UNSPECIFIED' ) ;
#62 = COORDINATED_UNIVERSAL_TIME_OFFSET ( 5, 0, .BEHIND. ) ;
#63 = ADVANCED_FACE ( 'NONE', ( #130 ), #214, .F. ) ;
#64 = VECTOR ( 'NONE', #139, 1000.000000000000000 ) ;
#65 = PERSON_AND_ORGANIZATION ( #197, #228 ) ;
#66 = ADVANCED_FACE ( 'NONE', ( #11 ), #183, .F. ) ;
#67 = ORIENTED_EDGE ( 'NONE', *, *, #137, .F. ) ;
#68 = EDGE_CURVE ( 'NONE', #201, #205, #76, .T. ) ;
#69 = CALENDAR_DATE ( 2017, 31, 1 ) ;
#70 = PRODUCT_DEFINITION_FORMATION_WITH_SPECIFIED_SOURCE ( 'ANY', '', #88, .NOT_KNOWN. ) ;
#71 = CARTESIAN_POINT ( 'NONE',  ( 9.999999999999996400, 18.50000000000000000, 1.000000000000000000 ) ) ;
#72 = PRODUCT_DEFINITION_SHAPE ( 'NONE', 'NONE',  #121 ) ;
#73 = ORIENTED_EDGE ( 'NONE', *, *, #68, .F. ) ;
#74 = APPROVAL_DATE_TIME ( #177, #61 ) ;
#75 = DIRECTION ( 'NONE',  ( -1.000000000000000000, -0.0000000000000000000, -0.0000000000000000000 ) ) ;
#76 = LINE ( 'NONE', #155, #97 ) ;
#77 = CARTESIAN_POINT ( 'NONE',  ( -10.00000000000000400, 18.50000000000000000, 0.0000000000000000000 ) ) ;
#78 = COORDINATED_UNIVERSAL_TIME_OFFSET ( 5, 0, .BEHIND. ) ;
#79 = DESIGN_CONTEXT ( 'detailed design', #108, 'design' ) ;
#80 = MANIFOLD_SOLID_BREP ( 'Extrude1', #85 ) ;
#81 = EDGE_CURVE ( 'NONE', #46, #201, #4, .T. ) ;
#82 = ORIENTED_EDGE ( 'NONE', *, *, #81, .T. ) ;
#83 = DIRECTION ( 'NONE',  ( 0.0000000000000000000, -0.0000000000000000000, -1.000000000000000000 ) ) ;
#84 = AXIS2_PLACEMENT_3D ( 'NONE', #17, #38, #37 ) ;
#85 = CLOSED_SHELL ( 'NONE', ( #91, #63, #154, #153, #178, #66 ) ) ;
#86 = PLANE ( 'NONE',  #215 ) ;
#87 = CC_DESIGN_PERSON_AND_ORGANIZATION_ASSIGNMENT ( #174, #149, ( #121 ) ) ;
#88 = PRODUCT ( 'Web Model 46700', 'Web Model 46700', '', ( #41 ) ) ;
#89 = DIRECTION ( 'NONE',  ( 1.000000000000000000, 0.0000000000000000000, 0.0000000000000000000 ) ) ;
#90 = FACE_OUTER_BOUND ( 'NONE', #50, .T. ) ;
#91 = ADVANCED_FACE ( 'NONE', ( #105 ), #86, .F. ) ;
#92 = VECTOR ( 'NONE', #140, 1000.000000000000000 ) ;
#93 = CARTESIAN_POINT ( 'NONE',  ( 0.0000000000000000000, 0.0000000000000000000, 0.0000000000000000000 ) ) ;
#94 = SECURITY_CLASSIFICATION_LEVEL ( 'unclassified' ) ;
#95 = LOCAL_TIME ( 10, 19, 39.00000000000000000, #110 ) ;
#96 = AXIS2_PLACEMENT_3D ( 'NONE', #30, #181, #210 ) ;
#97 = VECTOR ( 'NONE', #116, 1000.000000000000000 ) ;
#98 = EDGE_CURVE ( 'NONE', #175, #157, #23, .T. ) ;
#99 = DIRECTION ( 'NONE',  ( -0.0000000000000000000, -0.0000000000000000000, -1.000000000000000000 ) ) ;
#100 = CARTESIAN_POINT ( 'NONE',  ( 10.00000000000000200, -18.49999999999999600, 1.000000000000000000 ) ) ;
#101 = PLANE ( 'NONE',  #21 ) ;
#102 = VERTEX_POINT ( 'NONE', #51 ) ;
#103 = ORIENTED_EDGE ( 'NONE', *, *, #171, .F. ) ;
#104 = APPLICATION_PROTOCOL_DEFINITION ( 'international standard', 'config_control_design', 1994, #108 ) ;
#105 = FACE_OUTER_BOUND ( 'NONE', #2, .T. ) ;
#106 = PERSON_AND_ORGANIZATION ( #197, #228 ) ;
#108 = APPLICATION_CONTEXT ( 'configuration controlled 3d designs of mechanical parts and assemblies' ) ;
#107 = SECURITY_CLASSIFICATION ( '', '', #94 ) ;
#109 = ORIENTED_EDGE ( 'NONE', *, *, #81, .F. ) ;
#110 = COORDINATED_UNIVERSAL_TIME_OFFSET ( 5, 0, .BEHIND. ) ;
#111 = EDGE_CURVE ( 'NONE', #201, #175, #208, .T. ) ;
#112 = CC_DESIGN_PERSON_AND_ORGANIZATION_ASSIGNMENT ( #65, #59, ( #70 ) ) ;
#113 = PERSON_AND_ORGANIZATION ( #197, #228 ) ;
#114 = ORIENTED_EDGE ( 'NONE', *, *, #202, .T. ) ;
#115 = DIRECTION ( 'NONE',  ( -0.0000000000000000000, -0.0000000000000000000, -1.000000000000000000 ) ) ;
#116 = DIRECTION ( 'NONE',  ( -0.0000000000000000000, -0.0000000000000000000, -1.000000000000000000 ) ) ;
#117 = CARTESIAN_POINT ( 'NONE',  ( 9.999999999999996400, 18.50000000000000000, 1.000000000000000000 ) ) ;
#118 = DIRECTION ( 'NONE',  ( 1.406532548089303500E-016, -1.000000000000000000, 0.0000000000000000000 ) ) ;
#119 = LINE ( 'NONE', #195, #54 ) ;
#120 = APPROVAL_DATE_TIME ( #196, #8 ) ;
#121 = PRODUCT_DEFINITION ( 'UNKNOWN', '', #70, #79 ) ;
#122 = CARTESIAN_POINT ( 'NONE',  ( -9.999999999999998200, -18.49999999999999600, 1.000000000000000000 ) ) ;
#123 = ORIENTED_EDGE ( 'NONE', *, *, #148, .T. ) ;
#124 = CARTESIAN_POINT ( 'NONE',  ( -10.00000000000000400, 18.50000000000000000, 1.000000000000000000 ) ) ;
#125 = CARTESIAN_POINT ( 'NONE',  ( -10.00000000000000400, 18.50000000000000000, 0.0000000000000000000 ) ) ;
#126 = PERSON_AND_ORGANIZATION_ROLE ( 'design_owner' ) ;
#127 = VERTEX_POINT ( 'NONE', #125 ) ;
#128 = SHAPE_DEFINITION_REPRESENTATION ( #72, #27 ) ;
#129 = APPROVAL_STATUS ( 'not_yet_approved' ) ;
#130 = FACE_OUTER_BOUND ( 'NONE', #57, .T. ) ;
#131 = CC_DESIGN_APPROVAL ( #156, ( #107 ) ) ;
#132 = LINE ( 'NONE', #122, #45 ) ;
#133 = ORIENTED_EDGE ( 'NONE', *, *, #98, .F. ) ;
#134 = CARTESIAN_POINT ( 'NONE',  ( -10.00000000000000400, 18.50000000000000000, 1.000000000000000000 ) ) ;
#135 = LINE ( 'NONE', #144, #92 ) ;
#136 = ORIENTED_EDGE ( 'NONE', *, *, #148, .F. ) ;
#137 = EDGE_CURVE ( 'NONE', #102, #205, #39, .T. ) ;
#138 = DATE_AND_TIME ( #69, #95 ) ;
#139 = DIRECTION ( 'NONE',  ( -1.406532548089303500E-016, 1.000000000000000000, -0.0000000000000000000 ) ) ;
#140 = DIRECTION ( 'NONE',  ( 1.000000000000000000, 0.0000000000000000000, 0.0000000000000000000 ) ) ;
#141 = VECTOR ( 'NONE', #179, 1000.000000000000000 ) ;
#142 = PERSON_AND_ORGANIZATION ( #197, #228 ) ;
#143 = CARTESIAN_POINT ( 'NONE',  ( 10.00000000000000200, -18.49999999999999600, 1.000000000000000000 ) ) ;
#144 = CARTESIAN_POINT ( 'NONE',  ( -9.999999999999998200, -18.49999999999999600, 0.0000000000000000000 ) ) ;
#145 = CARTESIAN_POINT ( 'NONE',  ( 9.999999999999996400, 18.50000000000000000, 0.0000000000000000000 ) ) ;
#146 = ORIENTED_EDGE ( 'NONE', *, *, #20, .F. ) ;
#147 =( GEOMETRIC_REPRESENTATION_CONTEXT ( 3 ) GLOBAL_UNCERTAINTY_ASSIGNED_CONTEXT ( ( #187 ) ) GLOBAL_UNIT_ASSIGNED_CONTEXT ( ( #230, #221, #56 ) ) REPRESENTATION_CONTEXT ( 'NONE', 'WORKASPACE' ) );
#148 = EDGE_CURVE ( 'NONE', #127, #15, #225, .T. ) ;
#149 = PERSON_AND_ORGANIZATION_ROLE ( 'creator' ) ;
#150 = VECTOR ( 'NONE', #75, 1000.000000000000000 ) ;
#151 = CALENDAR_DATE ( 2017, 31, 1 ) ;
#152 = APPROVAL_PERSON_ORGANIZATION ( #192, #156, #200 ) ;
#153 = ADVANCED_FACE ( 'NONE', ( #9 ), #161, .F. ) ;
#154 = ADVANCED_FACE ( 'NONE', ( #90 ), #237, .F. ) ;
#155 = CARTESIAN_POINT ( 'NONE',  ( 9.999999999999996400, 18.50000000000000000, 1.000000000000000000 ) ) ;
#156 = APPROVAL ( #172, 'UNSPECIFIED' ) ;
#157 = VERTEX_POINT ( 'NONE', #158 ) ;
#158 = CARTESIAN_POINT ( 'NONE',  ( -9.999999999999998200, -18.49999999999999600, 1.000000000000000000 ) ) ;
#159 = DATE_AND_TIME ( #209, #25 ) ;
#160 = CC_DESIGN_DATE_AND_TIME_ASSIGNMENT ( #169, #223, ( #107 ) ) ;
#161 = PLANE ( 'NONE',  #84 ) ;
#162 = CARTESIAN_POINT ( 'NONE',  ( -10.00000000000000400, 18.50000000000000000, 1.000000000000000000 ) ) ;
#163 = DIRECTION ( 'NONE',  ( -0.0000000000000000000, -0.0000000000000000000, -1.000000000000000000 ) ) ;
#164 = AXIS2_PLACEMENT_3D ( 'NONE', #93, #10, #180 ) ;
#165 = CARTESIAN_POINT ( 'NONE',  ( -10.00000000000000400, 18.50000000000000000, 1.000000000000000000 ) ) ;
#166 = EDGE_LOOP ( 'NONE', ( #5, #26, #6, #114 ) ) ;
#167 = CARTESIAN_POINT ( 'NONE',  ( -10.00000000000000400, 18.50000000000000000, 1.000000000000000000 ) ) ;
#168 = APPROVAL_ROLE ( '' ) ;
#169 = DATE_AND_TIME ( #151, #19 ) ;
#170 = APPROVAL_STATUS ( 'not_yet_approved' ) ;
#171 = EDGE_CURVE ( 'NONE', #205, #127, #28, .T. ) ;
#172 = APPROVAL_STATUS ( 'not_yet_approved' ) ;
#173 = AXIS2_PLACEMENT_3D ( 'NONE', #124, #14, #220 ) ;
#174 = PERSON_AND_ORGANIZATION ( #197, #228 ) ;
#175 = VERTEX_POINT ( 'NONE', #167 ) ;
#176 = ORIENTED_EDGE ( 'NONE', *, *, #231, .T. ) ;
#177 = DATE_AND_TIME ( #35, #224 ) ;
#178 = ADVANCED_FACE ( 'NONE', ( #188 ), #101, .T. ) ;
#179 = DIRECTION ( 'NONE',  ( -1.406532548089303500E-016, 1.000000000000000000, -0.0000000000000000000 ) ) ;
#180 = DIRECTION ( 'NONE',  ( 1.000000000000000000, 0.0000000000000000000, 0.0000000000000000000 ) ) ;
#181 = DIRECTION ( 'NONE',  ( -0.0000000000000000000, 0.0000000000000000000, 1.000000000000000000 ) ) ;
#182 = EDGE_CURVE ( 'NONE', #157, #46, #132, .T. ) ;
#183 = PLANE ( 'NONE',  #96 ) ;
#184 = DIRECTION ( 'NONE',  ( -0.0000000000000000000, 0.0000000000000000000, 1.000000000000000000 ) ) ;
#185 = CC_DESIGN_APPROVAL ( #8, ( #121 ) ) ;
#186 = ORIENTED_EDGE ( 'NONE', *, *, #137, .T. ) ;
#187 = UNCERTAINTY_MEASURE_WITH_UNIT (LENGTH_MEASURE( 1.000000000000000100E-005 ), #230, 'distance_accuracy_value', 'NONE');
#188 = FACE_OUTER_BOUND ( 'NONE', #43, .T. ) ;
#189 = LOCAL_TIME ( 10, 19, 39.00000000000000000, #62 ) ;
#190 = CC_DESIGN_APPROVAL ( #61, ( #70 ) ) ;
#191 = APPLICATION_PROTOCOL_DEFINITION ( 'international standard', 'config_control_design', 1994, #227 ) ;
#192 = PERSON_AND_ORGANIZATION ( #197, #228 ) ;
#193 = ORIENTED_EDGE ( 'NONE', *, *, #206, .F. ) ;
#194 = ORIENTED_EDGE ( 'NONE', *, *, #171, .T. ) ;
#195 = CARTESIAN_POINT ( 'NONE',  ( -10.00000000000000400, 18.50000000000000000, 1.000000000000000000 ) ) ;
#196 = DATE_AND_TIME ( #7, #189 ) ;
#197 = PERSON ( 'UNSPECIFIED', 'UNSPECIFIED', 'UNSPECIFIED', ('UNSPECIFIED'), ('UNSPECIFIED'), ('UNSPECIFIED') ) ;
#198 = DIRECTION ( 'NONE',  ( 1.406532548089303500E-016, -1.000000000000000000, 0.0000000000000000000 ) ) ;
#199 = VECTOR ( 'NONE', #218, 1000.000000000000000 ) ;
#200 = APPROVAL_ROLE ( '' ) ;
#201 = VERTEX_POINT ( 'NONE', #236 ) ;
#202 = EDGE_CURVE ( 'NONE', #157, #15, #40, .T. ) ;
#203 = COORDINATED_UNIVERSAL_TIME_OFFSET ( 5, 0, .BEHIND. ) ;
#204 = ORIENTED_EDGE ( 'NONE', *, *, #111, .T. ) ;
#205 = VERTEX_POINT ( 'NONE', #145 ) ;
#206 = EDGE_CURVE ( 'NONE', #15, #102, #135, .T. ) ;
#207 = PRODUCT_RELATED_PRODUCT_CATEGORY ( 'detail', '', ( #88 ) ) ;
#208 = LINE ( 'NONE', #162, #235 ) ;
#209 = CALENDAR_DATE ( 2017, 31, 1 ) ;
#210 = DIRECTION ( 'NONE',  ( 1.000000000000000000, 0.0000000000000000000, 0.0000000000000000000 ) ) ;
#211 = ORIENTED_EDGE ( 'NONE', *, *, #111, .F. ) ;
#212 = CC_DESIGN_DATE_AND_TIME_ASSIGNMENT ( #159, #1, ( #121 ) ) ;
#213 = ORIENTED_EDGE ( 'NONE', *, *, #182, .T. ) ;
#214 = PLANE ( 'NONE',  #233 ) ;
#215 = AXIS2_PLACEMENT_3D ( 'NONE', #71, #32, #118 ) ;
#216 = CARTESIAN_POINT ( 'NONE',  ( 10.00000000000000200, -18.49999999999999600, 1.000000000000000000 ) ) ;
#217 = COORDINATED_UNIVERSAL_TIME_OFFSET ( 5, 0, .BEHIND. ) ;
#218 = DIRECTION ( 'NONE',  ( 1.406532548089303500E-016, -1.000000000000000000, 0.0000000000000000000 ) ) ;
#219 = CARTESIAN_POINT ( 'NONE',  ( -10.00000000000000400, 18.50000000000000000, 0.0000000000000000000 ) ) ;
#220 = DIRECTION ( 'NONE',  ( -1.406532548089303500E-016, 1.000000000000000000, 0.0000000000000000000 ) ) ;
#221 =( NAMED_UNIT ( * ) PLANE_ANGLE_UNIT ( ) SI_UNIT ( $, .RADIAN. ) );
#222 = PERSON_AND_ORGANIZATION ( #197, #228 ) ;
#223 = DATE_TIME_ROLE ( 'classification_date' ) ;
#224 = LOCAL_TIME ( 10, 19, 39.00000000000000000, #217 ) ;
#225 = LINE ( 'NONE', #219, #60 ) ;
#226 = EDGE_LOOP ( 'NONE', ( #67, #193, #136, #103 ) ) ;
#227 = APPLICATION_CONTEXT ( 'configuration controlled 3d designs of mechanical parts and assemblies' ) ;
#228 = ORGANIZATION ( 'UNSPECIFIED', 'UNSPECIFIED', '' ) ;
#229 = ORIENTED_EDGE ( 'NONE', *, *, #20, .T. ) ;
#230 =( LENGTH_UNIT ( ) NAMED_UNIT ( * ) SI_UNIT ( .MILLI., .METRE. ) );
#231 = EDGE_CURVE ( 'NONE', #46, #102, #47, .T. ) ;
#232 = VECTOR ( 'NONE', #99, 1000.000000000000000 ) ;
#233 = AXIS2_PLACEMENT_3D ( 'NONE', #134, #53, #83 ) ;
#234 = DIRECTION ( 'NONE',  ( -1.000000000000000000, -0.0000000000000000000, -0.0000000000000000000 ) ) ;
#235 = VECTOR ( 'NONE', #234, 1000.000000000000000 ) ;
#236 = CARTESIAN_POINT ( 'NONE',  ( 9.999999999999996400, 18.50000000000000000, 1.000000000000000000 ) ) ;
#237 = PLANE ( 'NONE',  #173 ) ;
ENDSEC;
END-ISO-10303-21;
