ISO-10303-21;
HEADER;
FILE_DESCRIPTION (( 'STEP AP203' ),
    '1' );
FILE_NAME ('Web Model 43365_20904.step',
    '2022-03-15T15:21:37',
    ( '' ),
    ( '' ),
    'SwSTEP 2.0',
    'SolidWorks 2021',
    '' );
FILE_SCHEMA (( 'CONFIG_CONTROL_DESIGN' ));
ENDSEC;

DATA;
#1 = CIRCLE ( 'NONE', #23, 2.499999999999999556 ) ;
#2 = ORIENTED_EDGE ( 'NONE', *, *, #36, .T. ) ;
#3 = SECURITY_CLASSIFICATION ( '', '', #72 ) ;
#4 =( LENGTH_UNIT ( ) NAMED_UNIT ( * ) SI_UNIT ( .MILLI., .METRE. ) );
#5 = CC_DESIGN_PERSON_AND_ORGANIZATION_ASSIGNMENT ( #47, #146, ( #62 ) ) ;
#6 = EDGE_CURVE ( 'NONE', #152, #128, #42, .T. ) ;
#7 = APPLICATION_CONTEXT ( 'configuration controlled 3d designs of mechanical parts and assemblies' ) ;
#8 = DIRECTION ( 'NONE',  ( -0.000000000000000000, -0.000000000000000000, -1.000000000000000000 ) ) ;
#9 = PERSON_AND_ORGANIZATION_ROLE ( 'classification_officer' ) ;
#10 = PERSON_AND_ORGANIZATION ( #77, #31 ) ;
#11 = CC_DESIGN_PERSON_AND_ORGANIZATION_ASSIGNMENT ( #161, #9, ( #3 ) ) ;
#12 = APPROVAL_ROLE ( '' ) ;
#13 = ORIENTED_EDGE ( 'NONE', *, *, #101, .F. ) ;
#14 = DIRECTION ( 'NONE',  ( 1.000000000000000000, 0.000000000000000000, 0.000000000000000000 ) ) ;
#15 = ADVANCED_BREP_SHAPE_REPRESENTATION ( 'Web Model 43365_20904', ( #104, #97 ), #165 ) ;
#16 = ORIENTED_EDGE ( 'NONE', *, *, #60, .T. ) ;
#17 = CARTESIAN_POINT ( 'NONE',  ( -2.499999999999999556, 0.000000000000000000, 0.000000000000000000 ) ) ;
#18 = APPROVAL_PERSON_ORGANIZATION ( #84, #85, #163 ) ;
#19 = CARTESIAN_POINT ( 'NONE',  ( 2.499999999999999556, 3.061616997868382648E-16, 0.000000000000000000 ) ) ;
#20 = DATE_TIME_ROLE ( 'creation_date' ) ;
#21 = PERSON_AND_ORGANIZATION ( #77, #31 ) ;
#22 = CC_DESIGN_PERSON_AND_ORGANIZATION_ASSIGNMENT ( #10, #73, ( #49 ) ) ;
#23 = AXIS2_PLACEMENT_3D ( 'NONE', #70, #26, #91 ) ;
#24 = CALENDAR_DATE ( 2022, 15, 3 ) ;
#25 = APPROVAL_PERSON_ORGANIZATION ( #173, #169, #175 ) ;
#26 = DIRECTION ( 'NONE',  ( 0.000000000000000000, 0.000000000000000000, 1.000000000000000000 ) ) ;
#27 = ORIENTED_EDGE ( 'NONE', *, *, #101, .T. ) ;
#28 = CARTESIAN_POINT ( 'NONE',  ( 0.000000000000000000, 0.000000000000000000, 0.000000000000000000 ) ) ;
#29 = DIRECTION ( 'NONE',  ( -0.000000000000000000, -0.000000000000000000, -1.000000000000000000 ) ) ;
#30 = DIRECTION ( 'NONE',  ( 1.000000000000000000, 0.000000000000000000, 0.000000000000000000 ) ) ;
#31 = ORGANIZATION ( 'UNSPECIFIED', 'UNSPECIFIED', '' ) ;
#32 = APPLICATION_PROTOCOL_DEFINITION ( 'international standard', 'config_control_design', 1994, #127 ) ;
#33 = COORDINATED_UNIVERSAL_TIME_OFFSET ( 5, 0, .BEHIND. ) ;
#34 = APPROVAL_STATUS ( 'not_yet_approved' ) ;
#35 = CALENDAR_DATE ( 2022, 15, 3 ) ;
#36 = EDGE_CURVE ( 'NONE', #128, #55, #50, .T. ) ;
#37 = AXIS2_PLACEMENT_3D ( 'NONE', #129, #92, #138 ) ;
#38 = EDGE_CURVE ( 'NONE', #121, #55, #110, .T. ) ;
#39 = DIRECTION ( 'NONE',  ( -0.000000000000000000, -0.000000000000000000, -1.000000000000000000 ) ) ;
#40 = CARTESIAN_POINT ( 'NONE',  ( 0.000000000000000000, 0.000000000000000000, 0.5000000000000000000 ) ) ;
#41 = FACE_OUTER_BOUND ( 'NONE', #106, .T. ) ;
#42 = LINE ( 'NONE', #94, #65 ) ;
#43 = DIRECTION ( 'NONE',  ( -1.000000000000000000, 0.000000000000000000, 0.000000000000000000 ) ) ;
#44 = UNCERTAINTY_MEASURE_WITH_UNIT (LENGTH_MEASURE( 1.000000000000000082E-05 ), #4, 'distance_accuracy_value', 'NONE');
#45 = APPLICATION_PROTOCOL_DEFINITION ( 'international standard', 'config_control_design', 1994, #7 ) ;
#46 = CC_DESIGN_SECURITY_CLASSIFICATION ( #3, ( #62 ) ) ;
#47 = PERSON_AND_ORGANIZATION ( #77, #31 ) ;
#48 = COORDINATED_UNIVERSAL_TIME_OFFSET ( 5, 0, .BEHIND. ) ;
#49 = PRODUCT_DEFINITION ( 'UNKNOWN', '', #62, #168 ) ;
#50 = CIRCLE ( 'NONE', #74, 2.499999999999999556 ) ;
#51 = ORIENTED_EDGE ( 'NONE', *, *, #38, .F. ) ;
#52 = APPROVAL_PERSON_ORGANIZATION ( #56, #137, #12 ) ;
#53 = CARTESIAN_POINT ( 'NONE',  ( 0.000000000000000000, 0.000000000000000000, 0.5000000000000000000 ) ) ;
#54 = FACE_OUTER_BOUND ( 'NONE', #61, .T. ) ;
#55 = VERTEX_POINT ( 'NONE', #17 ) ;
#56 = PERSON_AND_ORGANIZATION ( #77, #31 ) ;
#57 = CALENDAR_DATE ( 2022, 15, 3 ) ;
#58 = DATE_AND_TIME ( #114, #69 ) ;
#59 = CC_DESIGN_PERSON_AND_ORGANIZATION_ASSIGNMENT ( #149, #71, ( #62 ) ) ;
#60 = EDGE_CURVE ( 'NONE', #55, #128, #75, .T. ) ;
#61 = EDGE_LOOP ( 'NONE', ( #107, #13, #88, #16 ) ) ;
#62 = PRODUCT_DEFINITION_FORMATION_WITH_SPECIFIED_SOURCE ( 'ANY', '', #162, .NOT_KNOWN. ) ;
#63 = PLANE ( 'NONE',  #93 ) ;
#64 = ADVANCED_FACE ( 'NONE', ( #54 ), #139, .T. ) ;
#65 = VECTOR ( 'NONE', #8, 1000.000000000000000 ) ;
#66 = CYLINDRICAL_SURFACE ( 'NONE', #37, 2.499999999999999556 ) ;
#67 = DIRECTION ( 'NONE',  ( 1.000000000000000000, 0.000000000000000000, -0.000000000000000000 ) ) ;
#68 = ORIENTED_EDGE ( 'NONE', *, *, #90, .T. ) ;
#69 = LOCAL_TIME ( 11, 21, 37.00000000000000000, #145 ) ;
#70 = CARTESIAN_POINT ( 'NONE',  ( 0.000000000000000000, 0.000000000000000000, 0.5000000000000000000 ) ) ;
#71 = PERSON_AND_ORGANIZATION_ROLE ( 'creator' ) ;
#72 = SECURITY_CLASSIFICATION_LEVEL ( 'unclassified' ) ;
#73 = PERSON_AND_ORGANIZATION_ROLE ( 'creator' ) ;
#74 = AXIS2_PLACEMENT_3D ( 'NONE', #28, #142, #14 ) ;
#75 = CIRCLE ( 'NONE', #123, 2.499999999999999556 ) ;
#76 = AXIS2_PLACEMENT_3D ( 'NONE', #40, #81, #170 ) ;
#77 = PERSON ( 'UNSPECIFIED', 'UNSPECIFIED', 'UNSPECIFIED', ('UNSPECIFIED'), ('UNSPECIFIED'), ('UNSPECIFIED') ) ;
#78 = CARTESIAN_POINT ( 'NONE',  ( 2.499999999999999556, 3.061616997868382648E-16, 0.5000000000000000000 ) ) ;
#79 = CARTESIAN_POINT ( 'NONE',  ( -2.499999999999999556, 0.000000000000000000, 0.5000000000000000000 ) ) ;
#80 = DIRECTION ( 'NONE',  ( 0.000000000000000000, 0.000000000000000000, 1.000000000000000000 ) ) ;
#81 = DIRECTION ( 'NONE',  ( 0.000000000000000000, 0.000000000000000000, 1.000000000000000000 ) ) ;
#82 = LOCAL_TIME ( 11, 21, 37.00000000000000000, #33 ) ;
#83 = DATE_AND_TIME ( #117, #136 ) ;
#84 = PERSON_AND_ORGANIZATION ( #77, #31 ) ;
#85 = APPROVAL ( #103, 'UNSPECIFIED' ) ;
#86 = COORDINATED_UNIVERSAL_TIME_OFFSET ( 5, 0, .BEHIND. ) ;
#87 = DIRECTION ( 'NONE',  ( 1.000000000000000000, 0.000000000000000000, 0.000000000000000000 ) ) ;
#88 = ORIENTED_EDGE ( 'NONE', *, *, #38, .T. ) ;
#89 = VECTOR ( 'NONE', #39, 1000.000000000000000 ) ;
#90 = EDGE_CURVE ( 'NONE', #152, #121, #1, .T. ) ;
#91 = DIRECTION ( 'NONE',  ( 1.000000000000000000, 0.000000000000000000, 0.000000000000000000 ) ) ;
#92 = DIRECTION ( 'NONE',  ( -0.000000000000000000, -0.000000000000000000, -1.000000000000000000 ) ) ;
#93 = AXIS2_PLACEMENT_3D ( 'NONE', #140, #80, #67 ) ;
#94 = CARTESIAN_POINT ( 'NONE',  ( 2.499999999999999556, 3.061616997868382648E-16, 0.5000000000000000000 ) ) ;
#95 = ORIENTED_EDGE ( 'NONE', *, *, #90, .F. ) ;
#96 = MECHANICAL_CONTEXT ( 'NONE', #127, 'mechanical' ) ;
#97 = AXIS2_PLACEMENT_3D ( 'NONE', #147, #135, #87 ) ;
#98 = DATE_AND_TIME ( #57, #119 ) ;
#99 = ADVANCED_FACE ( 'NONE', ( #111 ), #63, .F. ) ;
#100 = SHAPE_DEFINITION_REPRESENTATION ( #131, #15 ) ;
#101 = EDGE_CURVE ( 'NONE', #121, #152, #122, .T. ) ;
#102 = APPROVAL_DATE_TIME ( #113, #85 ) ;
#103 = APPROVAL_STATUS ( 'not_yet_approved' ) ;
#104 = MANIFOLD_SOLID_BREP ( 'Boss-Extrude1', #133 ) ;
#105 = CC_DESIGN_PERSON_AND_ORGANIZATION_ASSIGNMENT ( #21, #132, ( #162 ) ) ;
#106 = EDGE_LOOP ( 'NONE', ( #95, #112, #2, #51 ) ) ;
#107 = ORIENTED_EDGE ( 'NONE', *, *, #6, .F. ) ;
#108 = CARTESIAN_POINT ( 'NONE',  ( 0.000000000000000000, 0.000000000000000000, 0.5000000000000000000 ) ) ;
#109 =( NAMED_UNIT ( * ) PLANE_ANGLE_UNIT ( ) SI_UNIT ( $, .RADIAN. ) );
#110 = LINE ( 'NONE', #79, #89 ) ;
#111 = FACE_OUTER_BOUND ( 'NONE', #124, .T. ) ;
#112 = ORIENTED_EDGE ( 'NONE', *, *, #6, .T. ) ;
#113 = DATE_AND_TIME ( #35, #82 ) ;
#114 = CALENDAR_DATE ( 2022, 15, 3 ) ;
#115 = ADVANCED_FACE ( 'NONE', ( #126 ), #155, .T. ) ;
#116 = APPROVAL_STATUS ( 'not_yet_approved' ) ;
#117 = CALENDAR_DATE ( 2022, 15, 3 ) ;
#118 = DATE_TIME_ROLE ( 'classification_date' ) ;
#119 = LOCAL_TIME ( 11, 21, 37.00000000000000000, #86 ) ;
#120 = CC_DESIGN_DATE_AND_TIME_ASSIGNMENT ( #98, #118, ( #3 ) ) ;
#121 = VERTEX_POINT ( 'NONE', #144 ) ;
#122 = CIRCLE ( 'NONE', #150, 2.499999999999999556 ) ;
#123 = AXIS2_PLACEMENT_3D ( 'NONE', #166, #157, #172 ) ;
#124 = EDGE_LOOP ( 'NONE', ( #153, #164 ) ) ;
#125 = CC_DESIGN_APPROVAL ( #169, ( #3 ) ) ;
#126 = FACE_OUTER_BOUND ( 'NONE', #171, .T. ) ;
#127 = APPLICATION_CONTEXT ( 'configuration controlled 3d designs of mechanical parts and assemblies' ) ;
#128 = VERTEX_POINT ( 'NONE', #19 ) ;
#129 = CARTESIAN_POINT ( 'NONE',  ( 0.000000000000000000, 0.000000000000000000, 0.5000000000000000000 ) ) ;
#130 = APPROVAL_DATE_TIME ( #160, #169 ) ;
#131 = PRODUCT_DEFINITION_SHAPE ( 'NONE', 'NONE',  #49 ) ;
#132 = PERSON_AND_ORGANIZATION_ROLE ( 'design_owner' ) ;
#133 = CLOSED_SHELL ( 'NONE', ( #167, #64, #115, #99 ) ) ;
#134 = COORDINATED_UNIVERSAL_TIME_OFFSET ( 5, 0, .BEHIND. ) ;
#135 = DIRECTION ( 'NONE',  ( 0.000000000000000000, 0.000000000000000000, 1.000000000000000000 ) ) ;
#136 = LOCAL_TIME ( 11, 21, 37.00000000000000000, #134 ) ;
#137 = APPROVAL ( #34, 'UNSPECIFIED' ) ;
#138 = DIRECTION ( 'NONE',  ( -1.000000000000000000, 0.000000000000000000, 0.000000000000000000 ) ) ;
#139 = CYLINDRICAL_SURFACE ( 'NONE', #148, 2.499999999999999556 ) ;
#140 = CARTESIAN_POINT ( 'NONE',  ( 0.000000000000000000, 0.000000000000000000, 0.000000000000000000 ) ) ;
#141 = CC_DESIGN_DATE_AND_TIME_ASSIGNMENT ( #83, #20, ( #49 ) ) ;
#142 = DIRECTION ( 'NONE',  ( 0.000000000000000000, 0.000000000000000000, 1.000000000000000000 ) ) ;
#143 = CC_DESIGN_APPROVAL ( #85, ( #49 ) ) ;
#144 = CARTESIAN_POINT ( 'NONE',  ( -2.499999999999999556, 0.000000000000000000, 0.5000000000000000000 ) ) ;
#145 = COORDINATED_UNIVERSAL_TIME_OFFSET ( 5, 0, .BEHIND. ) ;
#146 = PERSON_AND_ORGANIZATION_ROLE ( 'design_supplier' ) ;
#147 = CARTESIAN_POINT ( 'NONE',  ( 0.000000000000000000, 0.000000000000000000, 0.000000000000000000 ) ) ;
#148 = AXIS2_PLACEMENT_3D ( 'NONE', #53, #29, #43 ) ;
#149 = PERSON_AND_ORGANIZATION ( #77, #31 ) ;
#150 = AXIS2_PLACEMENT_3D ( 'NONE', #108, #158, #30 ) ;
#151 = PRODUCT_RELATED_PRODUCT_CATEGORY ( 'detail', '', ( #162 ) ) ;
#152 = VERTEX_POINT ( 'NONE', #78 ) ;
#153 = ORIENTED_EDGE ( 'NONE', *, *, #60, .F. ) ;
#154 = LOCAL_TIME ( 11, 21, 37.00000000000000000, #48 ) ;
#155 = PLANE ( 'NONE',  #76 ) ;
#156 =( NAMED_UNIT ( * ) SI_UNIT ( $, .STERADIAN. ) SOLID_ANGLE_UNIT ( ) );
#157 = DIRECTION ( 'NONE',  ( 0.000000000000000000, 0.000000000000000000, 1.000000000000000000 ) ) ;
#158 = DIRECTION ( 'NONE',  ( 0.000000000000000000, 0.000000000000000000, 1.000000000000000000 ) ) ;
#159 = CC_DESIGN_APPROVAL ( #137, ( #62 ) ) ;
#160 = DATE_AND_TIME ( #24, #154 ) ;
#161 = PERSON_AND_ORGANIZATION ( #77, #31 ) ;
#162 = PRODUCT ( 'Web Model 43365_20904', 'Web Model 43365_20904', '', ( #96 ) ) ;
#163 = APPROVAL_ROLE ( '' ) ;
#164 = ORIENTED_EDGE ( 'NONE', *, *, #36, .F. ) ;
#165 =( GEOMETRIC_REPRESENTATION_CONTEXT ( 3 ) GLOBAL_UNCERTAINTY_ASSIGNED_CONTEXT ( ( #44 ) ) GLOBAL_UNIT_ASSIGNED_CONTEXT ( ( #4, #109, #156 ) ) REPRESENTATION_CONTEXT ( 'NONE', 'WORKASPACE' ) );
#166 = CARTESIAN_POINT ( 'NONE',  ( 0.000000000000000000, 0.000000000000000000, 0.000000000000000000 ) ) ;
#167 = ADVANCED_FACE ( 'NONE', ( #41 ), #66, .T. ) ;
#168 = DESIGN_CONTEXT ( 'detailed design', #7, 'design' ) ;
#169 = APPROVAL ( #116, 'UNSPECIFIED' ) ;
#170 = DIRECTION ( 'NONE',  ( 1.000000000000000000, 0.000000000000000000, -0.000000000000000000 ) ) ;
#171 = EDGE_LOOP ( 'NONE', ( #27, #68 ) ) ;
#172 = DIRECTION ( 'NONE',  ( 1.000000000000000000, 0.000000000000000000, 0.000000000000000000 ) ) ;
#173 = PERSON_AND_ORGANIZATION ( #77, #31 ) ;
#174 = APPROVAL_DATE_TIME ( #58, #137 ) ;
#175 = APPROVAL_ROLE ( '' ) ;
ENDSEC;
END-ISO-10303-21;
