ISO-10303-21;
HEADER;
FILE_DESCRIPTION (( 'STEP AP203' ),
    '1' );
FILE_NAME ('Web Model 37128MX_37128.step',
    '2018-05-08T16:11:19',
    ( '' ),
    ( '' ),
    'SwSTEP 2.0',
    'SolidWorks 2016',
    '' );
FILE_SCHEMA (( 'CONFIG_CONTROL_DESIGN' ));
ENDSEC;

DATA;
#1 = PERSON_AND_ORGANIZATION_ROLE ( 'creator' ) ;
#2 = ADVANCED_FACE ( 'NONE', ( #193 ), #209, .T. ) ;
#3 = DIRECTION ( 'NONE',  ( 0.0000000000000000000, 0.0000000000000000000, 1.000000000000000000 ) ) ;
#4 = ORIENTED_EDGE ( 'NONE', *, *, #180, .F. ) ;
#5 = EDGE_CURVE ( 'NONE', #187, #114, #228, .T. ) ;
#6 = EDGE_CURVE ( 'NONE', #163, #28, #57, .T. ) ;
#7 = FACE_OUTER_BOUND ( 'NONE', #227, .T. ) ;
#8 = PLANE ( 'NONE',  #229 ) ;
#9 = EDGE_LOOP ( 'NONE', ( #4, #24, #237, #231 ) ) ;
#10 = CLOSED_SHELL ( 'NONE', ( #138, #105, #69, #14, #2, #45 ) ) ;
#11 = CARTESIAN_POINT ( 'NONE',  ( -12.49999999999999500, 12.49999999999999500, 3.000000000000000000 ) ) ;
#12 = DATE_TIME_ROLE ( 'classification_date' ) ;
#13 = PERSON_AND_ORGANIZATION ( #121, #158 ) ;
#14 = ADVANCED_FACE ( 'NONE', ( #40 ), #132, .F. ) ;
#15 = ORIENTED_EDGE ( 'NONE', *, *, #169, .T. ) ;
#16 = ORIENTED_EDGE ( 'NONE', *, *, #232, .T. ) ;
#17 = CC_DESIGN_PERSON_AND_ORGANIZATION_ASSIGNMENT ( #92, #195, ( #191 ) ) ;
#18 = APPLICATION_CONTEXT ( 'configuration controlled 3d designs of mechanical parts and assemblies' ) ;
#19 = SHAPE_DEFINITION_REPRESENTATION ( #131, #146 ) ;
#20 = ORIENTED_EDGE ( 'NONE', *, *, #42, .T. ) ;
#21 = COORDINATED_UNIVERSAL_TIME_OFFSET ( 5, 0, .BEHIND. ) ;
#22 = CALENDAR_DATE ( 2018, 8, 5 ) ;
#23 = LINE ( 'NONE', #82, #235 ) ;
#24 = ORIENTED_EDGE ( 'NONE', *, *, #206, .F. ) ;
#25 = DIRECTION ( 'NONE',  ( 1.000000000000000000, 1.387778780781445700E-016, -0.0000000000000000000 ) ) ;
#26 = DIRECTION ( 'NONE',  ( 1.000000000000000000, 1.387778780781445400E-016, 0.0000000000000000000 ) ) ;
#27 = APPROVAL_PERSON_ORGANIZATION ( #218, #107, #33 ) ;
#28 = VERTEX_POINT ( 'NONE', #170 ) ;
#29 = CARTESIAN_POINT ( 'NONE',  ( 12.50000000000000500, -12.50000000000000200, 3.000000000000000000 ) ) ;
#30 = APPROVAL ( #86, 'UNSPECIFIED' ) ;
#31 = APPROVAL_DATE_TIME ( #196, #152 ) ;
#32 = APPLICATION_PROTOCOL_DEFINITION ( 'international standard', 'config_control_design', 1994, #145 ) ;
#33 = APPROVAL_ROLE ( '' ) ;
#34 = PERSON_AND_ORGANIZATION ( #121, #158 ) ;
#35 = LINE ( 'NONE', #139, #215 ) ;
#36 = EDGE_LOOP ( 'NONE', ( #15, #220, #155, #177 ) ) ;
#37 = CC_DESIGN_APPROVAL ( #152, ( #191 ) ) ;
#38 = APPROVAL_DATE_TIME ( #213, #107 ) ;
#39 = CARTESIAN_POINT ( 'NONE',  ( 0.0000000000000000000, 0.0000000000000000000, -3.000000000000000000 ) ) ;
#40 = FACE_OUTER_BOUND ( 'NONE', #200, .T. ) ;
#41 = ORIENTED_EDGE ( 'NONE', *, *, #206, .T. ) ;
#42 = EDGE_CURVE ( 'NONE', #160, #147, #64, .T. ) ;
#43 = CALENDAR_DATE ( 2018, 8, 5 ) ;
#44 = DIRECTION ( 'NONE',  ( 0.0000000000000000000, 0.0000000000000000000, -1.000000000000000000 ) ) ;
#45 = ADVANCED_FACE ( 'NONE', ( #95 ), #208, .F. ) ;
#46 = DIRECTION ( 'NONE',  ( -1.000000000000000000, -1.387778780781445400E-016, 0.0000000000000000000 ) ) ;
#47 = DATE_TIME_ROLE ( 'creation_date' ) ;
#48 = CC_DESIGN_PERSON_AND_ORGANIZATION_ASSIGNMENT ( #130, #222, ( #234 ) ) ;
#49 = APPROVAL_STATUS ( 'not_yet_approved' ) ;
#50 = PRODUCT_RELATED_PRODUCT_CATEGORY ( 'detail', '', ( #143 ) ) ;
#51 = COORDINATED_UNIVERSAL_TIME_OFFSET ( 5, 0, .BEHIND. ) ;
#52 = LINE ( 'NONE', #78, #198 ) ;
#53 = ORIENTED_EDGE ( 'NONE', *, *, #180, .T. ) ;
#54 =( GEOMETRIC_REPRESENTATION_CONTEXT ( 3 ) GLOBAL_UNCERTAINTY_ASSIGNED_CONTEXT ( ( #165 ) ) GLOBAL_UNIT_ASSIGNED_CONTEXT ( ( #67, #199, #123 ) ) REPRESENTATION_CONTEXT ( 'NONE', 'WORKASPACE' ) );
#55 = VECTOR ( 'NONE', #214, 1000.000000000000000 ) ;
#56 = COORDINATED_UNIVERSAL_TIME_OFFSET ( 5, 0, .BEHIND. ) ;
#57 = LINE ( 'NONE', #186, #144 ) ;
#58 = EDGE_LOOP ( 'NONE', ( #101, #60, #221, #93 ) ) ;
#59 = LOCAL_TIME ( 12, 11, 19.00000000000000000, #56 ) ;
#60 = ORIENTED_EDGE ( 'NONE', *, *, #83, .F. ) ;
#61 = CARTESIAN_POINT ( 'NONE',  ( -12.49999999999999500, -12.50000000000000500, -3.000000000000000000 ) ) ;
#62 = CARTESIAN_POINT ( 'NONE',  ( -12.49999999999999500, -12.50000000000000500, -3.000000000000000000 ) ) ;
#63 = DIRECTION ( 'NONE',  ( 0.0000000000000000000, 1.000000000000000000, 0.0000000000000000000 ) ) ;
#64 = LINE ( 'NONE', #133, #71 ) ;
#65 = CALENDAR_DATE ( 2018, 8, 5 ) ;
#66 = EDGE_CURVE ( 'NONE', #147, #187, #52, .T. ) ;
#67 =( LENGTH_UNIT ( ) NAMED_UNIT ( * ) SI_UNIT ( .MILLI., .METRE. ) );
#68 = ORIENTED_EDGE ( 'NONE', *, *, #184, .T. ) ;
#69 = ADVANCED_FACE ( 'NONE', ( #185 ), #8, .F. ) ;
#70 = PERSON_AND_ORGANIZATION ( #121, #158 ) ;
#71 = VECTOR ( 'NONE', #25, 1000.000000000000000 ) ;
#72 = MANIFOLD_SOLID_BREP ( 'Boss-Extrude1', #10 ) ;
#73 = CC_DESIGN_APPROVAL ( #107, ( #234 ) ) ;
#74 = LOCAL_TIME ( 12, 11, 19.00000000000000000, #125 ) ;
#75 = VECTOR ( 'NONE', #124, 1000.000000000000000 ) ;
#76 = DIRECTION ( 'NONE',  ( -1.387778780781445400E-016, 1.000000000000000000, 0.0000000000000000000 ) ) ;
#77 = LOCAL_TIME ( 12, 11, 19.00000000000000000, #21 ) ;
#78 = CARTESIAN_POINT ( 'NONE',  ( 12.50000000000000500, -12.50000000000000200, 3.000000000000000000 ) ) ;
#79 = FACE_OUTER_BOUND ( 'NONE', #58, .T. ) ;
#80 = AXIS2_PLACEMENT_3D ( 'NONE', #116, #151, #26 ) ;
#81 = CARTESIAN_POINT ( 'NONE',  ( -12.49999999999999500, -12.50000000000000500, 3.000000000000000000 ) ) ;
#82 = CARTESIAN_POINT ( 'NONE',  ( 12.50000000000000500, -12.50000000000000200, 3.000000000000000000 ) ) ;
#83 = EDGE_CURVE ( 'NONE', #147, #28, #23, .T. ) ;
#84 = PERSON_AND_ORGANIZATION_ROLE ( 'design_owner' ) ;
#85 = SECURITY_CLASSIFICATION_LEVEL ( 'unclassified' ) ;
#86 = APPROVAL_STATUS ( 'not_yet_approved' ) ;
#87 = PERSON_AND_ORGANIZATION_ROLE ( 'creator' ) ;
#88 = LINE ( 'NONE', #192, #55 ) ;
#89 = CC_DESIGN_PERSON_AND_ORGANIZATION_ASSIGNMENT ( #70, #1, ( #191 ) ) ;
#90 = ORIENTED_EDGE ( 'NONE', *, *, #178, .F. ) ;
#91 = DESIGN_CONTEXT ( 'detailed design', #145, 'design' ) ;
#92 = PERSON_AND_ORGANIZATION ( #121, #158 ) ;
#93 = ORIENTED_EDGE ( 'NONE', *, *, #225, .T. ) ;
#94 = CARTESIAN_POINT ( 'NONE',  ( 0.0000000000000000000, 0.0000000000000000000, 3.000000000000000000 ) ) ;
#95 = FACE_OUTER_BOUND ( 'NONE', #9, .T. ) ;
#96 = ORIENTED_EDGE ( 'NONE', *, *, #5, .T. ) ;
#97 = DIRECTION ( 'NONE',  ( 1.000000000000000000, 1.387778780781445700E-016, -0.0000000000000000000 ) ) ;
#98 = CARTESIAN_POINT ( 'NONE',  ( 12.50000000000000500, 12.49999999999999800, 3.000000000000000000 ) ) ;
#99 = DIRECTION ( 'NONE',  ( -0.0000000000000000000, -1.000000000000000000, -0.0000000000000000000 ) ) ;
#100 = LINE ( 'NONE', #176, #75 ) ;
#101 = ORIENTED_EDGE ( 'NONE', *, *, #6, .T. ) ;
#102 = DIRECTION ( 'NONE',  ( 1.000000000000000000, 0.0000000000000000000, -0.0000000000000000000 ) ) ;
#103 = DIRECTION ( 'NONE',  ( 0.0000000000000000000, 0.0000000000000000000, 1.000000000000000000 ) ) ;
#104 = CALENDAR_DATE ( 2018, 8, 5 ) ;
#105 = ADVANCED_FACE ( 'NONE', ( #79 ), #134, .F. ) ;
#106 = CARTESIAN_POINT ( 'NONE',  ( -12.49999999999999500, -12.50000000000000500, 3.000000000000000000 ) ) ;
#107 = APPROVAL ( #49, 'UNSPECIFIED' ) ;
#108 = CALENDAR_DATE ( 2018, 8, 5 ) ;
#109 = VECTOR ( 'NONE', #63, 1000.000000000000000 ) ;
#110 = LOCAL_TIME ( 12, 11, 19.00000000000000000, #51 ) ;
#111 = LINE ( 'NONE', #61, #230 ) ;
#112 = ORIENTED_EDGE ( 'NONE', *, *, #232, .F. ) ;
#113 = APPROVAL_DATE_TIME ( #154, #30 ) ;
#114 = VERTEX_POINT ( 'NONE', #117 ) ;
#115 = DIRECTION ( 'NONE',  ( 1.000000000000000000, 0.0000000000000000000, -0.0000000000000000000 ) ) ;
#116 = CARTESIAN_POINT ( 'NONE',  ( 12.50000000000000500, 12.49999999999999800, 3.000000000000000000 ) ) ;
#117 = CARTESIAN_POINT ( 'NONE',  ( 12.50000000000000500, 12.49999999999999800, -3.000000000000000000 ) ) ;
#118 = DIRECTION ( 'NONE',  ( -1.000000000000000000, -1.387778780781445700E-016, 0.0000000000000000000 ) ) ;
#119 = CARTESIAN_POINT ( 'NONE',  ( 12.50000000000000500, -12.50000000000000200, 3.000000000000000000 ) ) ;
#120 = CARTESIAN_POINT ( 'NONE',  ( 12.50000000000000500, 12.49999999999999800, -3.000000000000000000 ) ) ;
#121 = PERSON ( 'UNSPECIFIED', 'UNSPECIFIED', 'UNSPECIFIED', ('UNSPECIFIED'), ('UNSPECIFIED'), ('UNSPECIFIED') ) ;
#122 = COORDINATED_UNIVERSAL_TIME_OFFSET ( 5, 0, .BEHIND. ) ;
#123 =( NAMED_UNIT ( * ) SI_UNIT ( $, .STERADIAN. ) SOLID_ANGLE_UNIT ( ) );
#124 = DIRECTION ( 'NONE',  ( -0.0000000000000000000, -0.0000000000000000000, -1.000000000000000000 ) ) ;
#125 = COORDINATED_UNIVERSAL_TIME_OFFSET ( 5, 0, .BEHIND. ) ;
#126 = VECTOR ( 'NONE', #118, 1000.000000000000000 ) ;
#127 = VECTOR ( 'NONE', #150, 1000.000000000000000 ) ;
#128 = PERSON_AND_ORGANIZATION ( #121, #158 ) ;
#129 = DIRECTION ( 'NONE',  ( 0.0000000000000000000, -0.0000000000000000000, 1.000000000000000000 ) ) ;
#130 = PERSON_AND_ORGANIZATION ( #121, #158 ) ;
#131 = PRODUCT_DEFINITION_SHAPE ( 'NONE', 'NONE',  #142 ) ;
#132 = PLANE ( 'NONE',  #80 ) ;
#133 = CARTESIAN_POINT ( 'NONE',  ( 12.50000000000000500, -12.50000000000000200, 3.000000000000000000 ) ) ;
#134 = PLANE ( 'NONE',  #188 ) ;
#135 = LINE ( 'NONE', #120, #126 ) ;
#136 = CARTESIAN_POINT ( 'NONE',  ( 12.50000000000000500, -12.50000000000000200, 3.000000000000000000 ) ) ;
#137 = DIRECTION ( 'NONE',  ( 1.000000000000000000, 0.0000000000000000000, 0.0000000000000000000 ) ) ;
#138 = ADVANCED_FACE ( 'NONE', ( #7 ), #157, .F. ) ;
#139 = CARTESIAN_POINT ( 'NONE',  ( -12.49999999999999500, -12.50000000000000500, 3.000000000000000000 ) ) ;
#140 = MECHANICAL_CONTEXT ( 'NONE', #18, 'mechanical' ) ;
#141 = VERTEX_POINT ( 'NONE', #210 ) ;
#142 = PRODUCT_DEFINITION ( 'UNKNOWN', '', #191, #91 ) ;
#143 = PRODUCT ( 'Web Model 37128MX_37128', 'Web Model 37128MX_37128', '', ( #140 ) ) ;
#144 = VECTOR ( 'NONE', #97, 1000.000000000000000 ) ;
#145 = APPLICATION_CONTEXT ( 'configuration controlled 3d designs of mechanical parts and assemblies' ) ;
#146 = ADVANCED_BREP_SHAPE_REPRESENTATION ( 'Web Model 37128MX_37128', ( #72, #212 ), #54 ) ;
#147 = VERTEX_POINT ( 'NONE', #29 ) ;
#148 = EDGE_LOOP ( 'NONE', ( #68, #20, #167, #175 ) ) ;
#149 = VECTOR ( 'NONE', #99, 1000.000000000000000 ) ;
#150 = DIRECTION ( 'NONE',  ( -0.0000000000000000000, -0.0000000000000000000, -1.000000000000000000 ) ) ;
#151 = DIRECTION ( 'NONE',  ( 1.387778780781445400E-016, -1.000000000000000000, 0.0000000000000000000 ) ) ;
#152 = APPROVAL ( #164, 'UNSPECIFIED' ) ;
#153 = LOCAL_TIME ( 12, 11, 19.00000000000000000, #122 ) ;
#154 = DATE_AND_TIME ( #22, #59 ) ;
#155 = ORIENTED_EDGE ( 'NONE', *, *, #66, .F. ) ;
#156 = DIRECTION ( 'NONE',  ( 0.0000000000000000000, -0.0000000000000000000, 1.000000000000000000 ) ) ;
#157 = PLANE ( 'NONE',  #201 ) ;
#158 = ORGANIZATION ( 'UNSPECIFIED', 'UNSPECIFIED', '' ) ;
#159 = CC_DESIGN_SECURITY_CLASSIFICATION ( #234, ( #191 ) ) ;
#160 = VERTEX_POINT ( 'NONE', #174 ) ;
#161 = CARTESIAN_POINT ( 'NONE',  ( 0.0000000000000000000, 0.0000000000000000000, 0.0000000000000000000 ) ) ;
#162 = PERSON_AND_ORGANIZATION ( #121, #158 ) ;
#163 = VERTEX_POINT ( 'NONE', #62 ) ;
#164 = APPROVAL_STATUS ( 'not_yet_approved' ) ;
#165 = UNCERTAINTY_MEASURE_WITH_UNIT (LENGTH_MEASURE( 1.000000000000000100E-005 ), #67, 'distance_accuracy_value', 'NONE');
#166 = AXIS2_PLACEMENT_3D ( 'NONE', #39, #156, #102 ) ;
#167 = ORIENTED_EDGE ( 'NONE', *, *, #66, .T. ) ;
#168 = ORIENTED_EDGE ( 'NONE', *, *, #184, .F. ) ;
#169 = EDGE_CURVE ( 'NONE', #28, #114, #183, .T. ) ;
#170 = CARTESIAN_POINT ( 'NONE',  ( 12.50000000000000500, -12.50000000000000200, -3.000000000000000000 ) ) ;
#171 = CC_DESIGN_PERSON_AND_ORGANIZATION_ASSIGNMENT ( #128, #84, ( #143 ) ) ;
#172 = DIRECTION ( 'NONE',  ( -0.0000000000000000000, -0.0000000000000000000, -1.000000000000000000 ) ) ;
#173 = CC_DESIGN_DATE_AND_TIME_ASSIGNMENT ( #182, #12, ( #234 ) ) ;
#174 = CARTESIAN_POINT ( 'NONE',  ( -12.49999999999999500, -12.50000000000000500, 3.000000000000000000 ) ) ;
#175 = ORIENTED_EDGE ( 'NONE', *, *, #178, .T. ) ;
#176 = CARTESIAN_POINT ( 'NONE',  ( -12.49999999999999500, 12.49999999999999500, 3.000000000000000000 ) ) ;
#177 = ORIENTED_EDGE ( 'NONE', *, *, #83, .T. ) ;
#178 = EDGE_CURVE ( 'NONE', #187, #205, #88, .T. ) ;
#179 = APPLICATION_PROTOCOL_DEFINITION ( 'international standard', 'config_control_design', 1994, #18 ) ;
#180 = EDGE_CURVE ( 'NONE', #141, #163, #111, .T. ) ;
#181 = CC_DESIGN_PERSON_AND_ORGANIZATION_ASSIGNMENT ( #13, #87, ( #142 ) ) ;
#182 = DATE_AND_TIME ( #43, #77 ) ;
#183 = LINE ( 'NONE', #189, #109 ) ;
#184 = EDGE_CURVE ( 'NONE', #205, #160, #202, .T. ) ;
#185 = FACE_OUTER_BOUND ( 'NONE', #36, .T. ) ;
#186 = CARTESIAN_POINT ( 'NONE',  ( 12.50000000000000500, -12.50000000000000200, -3.000000000000000000 ) ) ;
#187 = VERTEX_POINT ( 'NONE', #216 ) ;
#188 = AXIS2_PLACEMENT_3D ( 'NONE', #119, #76, #46 ) ;
#189 = CARTESIAN_POINT ( 'NONE',  ( 12.50000000000000500, -12.50000000000000200, -3.000000000000000000 ) ) ;
#190 = DIRECTION ( 'NONE',  ( -0.0000000000000000000, -1.000000000000000000, -0.0000000000000000000 ) ) ;
#191 = PRODUCT_DEFINITION_FORMATION_WITH_SPECIFIED_SOURCE ( 'ANY', '', #143, .NOT_KNOWN. ) ;
#192 = CARTESIAN_POINT ( 'NONE',  ( 12.50000000000000500, 12.49999999999999800, 3.000000000000000000 ) ) ;
#193 = FACE_OUTER_BOUND ( 'NONE', #148, .T. ) ;
#194 = APPROVAL_ROLE ( '' ) ;
#195 = PERSON_AND_ORGANIZATION_ROLE ( 'design_supplier' ) ;
#196 = DATE_AND_TIME ( #104, #74 ) ;
#197 = DATE_AND_TIME ( #108, #110 ) ;
#198 = VECTOR ( 'NONE', #233, 1000.000000000000000 ) ;
#199 =( NAMED_UNIT ( * ) PLANE_ANGLE_UNIT ( ) SI_UNIT ( $, .RADIAN. ) );
#200 = EDGE_LOOP ( 'NONE', ( #41, #112, #90, #96 ) ) ;
#201 = AXIS2_PLACEMENT_3D ( 'NONE', #106, #137, #44 ) ;
#202 = LINE ( 'NONE', #81, #149 ) ;
#203 = ORIENTED_EDGE ( 'NONE', *, *, #225, .F. ) ;
#204 = CC_DESIGN_DATE_AND_TIME_ASSIGNMENT ( #197, #47, ( #142 ) ) ;
#205 = VERTEX_POINT ( 'NONE', #11 ) ;
#206 = EDGE_CURVE ( 'NONE', #114, #141, #135, .T. ) ;
#207 = APPROVAL_PERSON_ORGANIZATION ( #162, #30, #194 ) ;
#208 = PLANE ( 'NONE',  #166 ) ;
#209 = PLANE ( 'NONE',  #224 ) ;
#210 = CARTESIAN_POINT ( 'NONE',  ( -12.49999999999999500, 12.49999999999999500, -3.000000000000000000 ) ) ;
#211 = DIRECTION ( 'NONE',  ( -1.000000000000000000, 0.0000000000000000000, 0.0000000000000000000 ) ) ;
#212 = AXIS2_PLACEMENT_3D ( 'NONE', #161, #3, #236 ) ;
#213 = DATE_AND_TIME ( #65, #153 ) ;
#214 = DIRECTION ( 'NONE',  ( -1.000000000000000000, -1.387778780781445700E-016, 0.0000000000000000000 ) ) ;
#215 = VECTOR ( 'NONE', #172, 1000.000000000000000 ) ;
#216 = CARTESIAN_POINT ( 'NONE',  ( 12.50000000000000500, 12.49999999999999800, 3.000000000000000000 ) ) ;
#217 = DIRECTION ( 'NONE',  ( -0.0000000000000000000, -0.0000000000000000000, -1.000000000000000000 ) ) ;
#218 = PERSON_AND_ORGANIZATION ( #121, #158 ) ;
#219 = CC_DESIGN_APPROVAL ( #30, ( #142 ) ) ;
#220 = ORIENTED_EDGE ( 'NONE', *, *, #5, .F. ) ;
#221 = ORIENTED_EDGE ( 'NONE', *, *, #42, .F. ) ;
#222 = PERSON_AND_ORGANIZATION_ROLE ( 'classification_officer' ) ;
#223 = APPROVAL_ROLE ( '' ) ;
#224 = AXIS2_PLACEMENT_3D ( 'NONE', #94, #129, #115 ) ;
#225 = EDGE_CURVE ( 'NONE', #160, #163, #35, .T. ) ;
#226 = APPROVAL_PERSON_ORGANIZATION ( #34, #152, #223 ) ;
#227 = EDGE_LOOP ( 'NONE', ( #53, #203, #168, #16 ) ) ;
#228 = LINE ( 'NONE', #98, #127 ) ;
#229 = AXIS2_PLACEMENT_3D ( 'NONE', #136, #211, #103 ) ;
#230 = VECTOR ( 'NONE', #190, 1000.000000000000000 ) ;
#231 = ORIENTED_EDGE ( 'NONE', *, *, #6, .F. ) ;
#232 = EDGE_CURVE ( 'NONE', #205, #141, #100, .T. ) ;
#233 = DIRECTION ( 'NONE',  ( 0.0000000000000000000, 1.000000000000000000, 0.0000000000000000000 ) ) ;
#234 = SECURITY_CLASSIFICATION ( '', '', #85 ) ;
#235 = VECTOR ( 'NONE', #217, 1000.000000000000000 ) ;
#236 = DIRECTION ( 'NONE',  ( 1.000000000000000000, 0.0000000000000000000, 0.0000000000000000000 ) ) ;
#237 = ORIENTED_EDGE ( 'NONE', *, *, #169, .F. ) ;
ENDSEC;
END-ISO-10303-21;
