ISO-10303-21;
HEADER;
FILE_DESCRIPTION (( 'STEP AP203' ),
    '1' );
FILE_NAME ('Web Model 68371.STEP',
    '2017-01-31T19:50:20',
    ( '' ),
    ( '' ),
    'SwSTEP 2.0',
    'SolidWorks 2016',
    '' );
FILE_SCHEMA (( 'CONFIG_CONTROL_DESIGN' ));
ENDSEC;

DATA;
#1 = PERSON_AND_ORGANIZATION_ROLE ( 'creator' ) ;
#2 = EDGE_CURVE ( 'NONE', #213, #177, #147, .T. ) ;
#3 = LINE ( 'NONE', #14, #187 ) ;
#4 = VECTOR ( 'NONE', #34, 1000.000000000000000 ) ;
#5 = VECTOR ( 'NONE', #93, 1000.000000000000000 ) ;
#6 = PERSON_AND_ORGANIZATION ( #132, #193 ) ;
#7 = CC_DESIGN_PERSON_AND_ORGANIZATION_ASSIGNMENT ( #49, #1, ( #227 ) ) ;
#8 = CARTESIAN_POINT ( 'NONE',  ( 12.50000000000000000, 19.00000000000000400, 3.000000000000000000 ) ) ;
#9 = SHAPE_DEFINITION_REPRESENTATION ( #191, #206 ) ;
#10 = VERTEX_POINT ( 'NONE', #74 ) ;
#11 = PLANE ( 'NONE',  #180 ) ;
#12 = DIRECTION ( 'NONE',  ( -0.0000000000000000000, -0.0000000000000000000, -1.000000000000000000 ) ) ;
#13 = PLANE ( 'NONE',  #144 ) ;
#14 = CARTESIAN_POINT ( 'NONE',  ( 12.50000000000000000, 19.00000000000000400, 0.0000000000000000000 ) ) ;
#15 =( NAMED_UNIT ( * ) PLANE_ANGLE_UNIT ( ) SI_UNIT ( $, .RADIAN. ) );
#16 = CARTESIAN_POINT ( 'NONE',  ( 12.50000000000000000, 19.00000000000000400, 3.000000000000000000 ) ) ;
#17 = FACE_OUTER_BOUND ( 'NONE', #22, .T. ) ;
#18 = ORIENTED_EDGE ( 'NONE', *, *, #28, .F. ) ;
#19 = AXIS2_PLACEMENT_3D ( 'NONE', #230, #46, #148 ) ;
#20 = PERSON_AND_ORGANIZATION_ROLE ( 'design_supplier' ) ;
#21 = EDGE_CURVE ( 'NONE', #177, #122, #113, .T. ) ;
#22 = EDGE_LOOP ( 'NONE', ( #168, #221, #58, #33 ) ) ;
#23 = PRODUCT_DEFINITION_FORMATION_WITH_SPECIFIED_SOURCE ( 'ANY', '', #95, .NOT_KNOWN. ) ;
#24 = VECTOR ( 'NONE', #82, 1000.000000000000000 ) ;
#25 = EDGE_LOOP ( 'NONE', ( #109, #73, #136, #157 ) ) ;
#26 = PERSON_AND_ORGANIZATION ( #132, #193 ) ;
#27 = ORIENTED_EDGE ( 'NONE', *, *, #135, .T. ) ;
#28 = EDGE_CURVE ( 'NONE', #76, #164, #96, .T. ) ;
#29 = VERTEX_POINT ( 'NONE', #233 ) ;
#30 = PLANE ( 'NONE',  #184 ) ;
#31 = DIRECTION ( 'NONE',  ( 1.000000000000000000, 1.369518533665900100E-016, -0.0000000000000000000 ) ) ;
#32 = DIRECTION ( 'NONE',  ( -1.369518533665900100E-016, 1.000000000000000000, 0.0000000000000000000 ) ) ;
#33 = ORIENTED_EDGE ( 'NONE', *, *, #70, .T. ) ;
#34 = DIRECTION ( 'NONE',  ( 1.369518533665900300E-016, -1.000000000000000000, 0.0000000000000000000 ) ) ;
#35 = CARTESIAN_POINT ( 'NONE',  ( 12.50000000000000000, 19.00000000000000400, 0.0000000000000000000 ) ) ;
#36 = FACE_OUTER_BOUND ( 'NONE', #232, .T. ) ;
#37 = DIRECTION ( 'NONE',  ( -1.000000000000000000, -1.369518533665900100E-016, 0.0000000000000000000 ) ) ;
#38 = AXIS2_PLACEMENT_3D ( 'NONE', #215, #79, #141 ) ;
#39 = ORIENTED_EDGE ( 'NONE', *, *, #88, .T. ) ;
#40 = APPLICATION_PROTOCOL_DEFINITION ( 'international standard', 'config_control_design', 1994, #195 ) ;
#41 = APPLICATION_PROTOCOL_DEFINITION ( 'international standard', 'config_control_design', 1994, #107 ) ;
#42 = COORDINATED_UNIVERSAL_TIME_OFFSET ( 5, 0, .BEHIND. ) ;
#43 = APPROVAL ( #105, 'UNSPECIFIED' ) ;
#44 = FACE_OUTER_BOUND ( 'NONE', #150, .T. ) ;
#45 = CC_DESIGN_PERSON_AND_ORGANIZATION_ASSIGNMENT ( #163, #20, ( #23 ) ) ;
#46 = DIRECTION ( 'NONE',  ( 0.0000000000000000000, 0.0000000000000000000, -1.000000000000000000 ) ) ;
#47 = CC_DESIGN_PERSON_AND_ORGANIZATION_ASSIGNMENT ( #155, #139, ( #95 ) ) ;
#48 = APPROVAL ( #121, 'UNSPECIFIED' ) ;
#49 = PERSON_AND_ORGANIZATION ( #132, #193 ) ;
#50 = ADVANCED_FACE ( 'NONE', ( #68 ), #127, .T. ) ;
#51 = CARTESIAN_POINT ( 'NONE',  ( 12.50000000000000500, -18.99999999999999600, 3.000000000000000000 ) ) ;
#52 = COORDINATED_UNIVERSAL_TIME_OFFSET ( 5, 0, .BEHIND. ) ;
#53 = CARTESIAN_POINT ( 'NONE',  ( 12.50000000000000000, 19.00000000000000400, 0.0000000000000000000 ) ) ;
#54 = VECTOR ( 'NONE', #12, 1000.000000000000000 ) ;
#55 = SECURITY_CLASSIFICATION_LEVEL ( 'unclassified' ) ;
#56 = COORDINATED_UNIVERSAL_TIME_OFFSET ( 5, 0, .BEHIND. ) ;
#57 = APPROVAL_ROLE ( '' ) ;
#58 = ORIENTED_EDGE ( 'NONE', *, *, #2, .T. ) ;
#59 = ORIENTED_EDGE ( 'NONE', *, *, #225, .T. ) ;
#60 = VERTEX_POINT ( 'NONE', #130 ) ;
#61 = DIRECTION ( 'NONE',  ( 1.000000000000000000, 1.387778780781445700E-016, -0.0000000000000000000 ) ) ;
#62 = VECTOR ( 'NONE', #61, 1000.000000000000000 ) ;
#63 = CARTESIAN_POINT ( 'NONE',  ( 12.50000000000000500, -18.99999999999999600, 0.0000000000000000000 ) ) ;
#64 = DIRECTION ( 'NONE',  ( -1.369518533665900300E-016, 1.000000000000000000, -0.0000000000000000000 ) ) ;
#65 = PLANE ( 'NONE',  #167 ) ;
#66 = LINE ( 'NONE', #117, #24 ) ;
#67 = ORIENTED_EDGE ( 'NONE', *, *, #28, .T. ) ;
#68 = FACE_OUTER_BOUND ( 'NONE', #69, .T. ) ;
#69 = EDGE_LOOP ( 'NONE', ( #18, #125, #90, #171 ) ) ;
#70 = EDGE_CURVE ( 'NONE', #177, #29, #183, .T. ) ;
#71 = EDGE_LOOP ( 'NONE', ( #39, #174, #209, #222 ) ) ;
#72 = DATE_AND_TIME ( #123, #173 ) ;
#73 = ORIENTED_EDGE ( 'NONE', *, *, #21, .F. ) ;
#74 = CARTESIAN_POINT ( 'NONE',  ( -12.49999999999999500, -19.00000000000000000, 3.000000000000000000 ) ) ;
#75 = CC_DESIGN_APPROVAL ( #43, ( #227 ) ) ;
#76 = VERTEX_POINT ( 'NONE', #128 ) ;
#77 = CARTESIAN_POINT ( 'NONE',  ( 12.50000000000000000, 19.00000000000000400, 3.000000000000000000 ) ) ;
#78 = CARTESIAN_POINT ( 'NONE',  ( 12.50000000000000000, 19.00000000000000400, 3.000000000000000000 ) ) ;
#79 = DIRECTION ( 'NONE',  ( 0.0000000000000000000, 0.0000000000000000000, 1.000000000000000000 ) ) ;
#80 = APPROVAL_PERSON_ORGANIZATION ( #182, #48, #86 ) ;
#81 = DIRECTION ( 'NONE',  ( -1.387778780781445400E-016, 1.000000000000000000, 0.0000000000000000000 ) ) ;
#82 = DIRECTION ( 'NONE',  ( -0.0000000000000000000, -0.0000000000000000000, -1.000000000000000000 ) ) ;
#83 = DIRECTION ( 'NONE',  ( 1.369518533665900100E-016, -1.000000000000000000, 0.0000000000000000000 ) ) ;
#84 = DATE_TIME_ROLE ( 'classification_date' ) ;
#85 = FACE_OUTER_BOUND ( 'NONE', #71, .T. ) ;
#86 = APPROVAL_ROLE ( '' ) ;
#87 = APPROVAL_DATE_TIME ( #217, #199 ) ;
#88 = EDGE_CURVE ( 'NONE', #164, #60, #110, .T. ) ;
#89 = COORDINATED_UNIVERSAL_TIME_OFFSET ( 5, 0, .BEHIND. ) ;
#90 = ORIENTED_EDGE ( 'NONE', *, *, #197, .F. ) ;
#91 = CC_DESIGN_APPROVAL ( #48, ( #23 ) ) ;
#92 = VECTOR ( 'NONE', #64, 1000.000000000000000 ) ;
#93 = DIRECTION ( 'NONE',  ( -1.000000000000000000, -1.387778780781445700E-016, 0.0000000000000000000 ) ) ;
#94 = DIRECTION ( 'NONE',  ( 1.387778780781445400E-016, -1.000000000000000000, 0.0000000000000000000 ) ) ;
#95 = PRODUCT ( 'Web Model 68371', 'Web Model 68371', '', ( #198 ) ) ;
#96 = LINE ( 'NONE', #114, #196 ) ;
#97 = ADVANCED_FACE ( 'NONE', ( #36 ), #11, .F. ) ;
#98 = DIRECTION ( 'NONE',  ( -0.0000000000000000000, -0.0000000000000000000, -1.000000000000000000 ) ) ;
#99 = LINE ( 'NONE', #153, #4 ) ;
#100 = DIRECTION ( 'NONE',  ( -1.000000000000000000, -1.387778780781445400E-016, 0.0000000000000000000 ) ) ;
#101 = PRODUCT_RELATED_PRODUCT_CATEGORY ( 'detail', '', ( #95 ) ) ;
#102 = ORIENTED_EDGE ( 'NONE', *, *, #229, .F. ) ;
#103 = APPROVAL_STATUS ( 'not_yet_approved' ) ;
#104 = CC_DESIGN_DATE_AND_TIME_ASSIGNMENT ( #126, #219, ( #227 ) ) ;
#105 = APPROVAL_STATUS ( 'not_yet_approved' ) ;
#106 = ADVANCED_FACE ( 'NONE', ( #44 ), #30, .F. ) ;
#107 = APPLICATION_CONTEXT ( 'configuration controlled 3d designs of mechanical parts and assemblies' ) ;
#108 = FACE_OUTER_BOUND ( 'NONE', #25, .T. ) ;
#109 = ORIENTED_EDGE ( 'NONE', *, *, #197, .T. ) ;
#110 = LINE ( 'NONE', #63, #62 ) ;
#111 = EDGE_CURVE ( 'NONE', #213, #60, #120, .T. ) ;
#112 = COORDINATED_UNIVERSAL_TIME_OFFSET ( 5, 0, .BEHIND. ) ;
#113 = LINE ( 'NONE', #228, #54 ) ;
#114 = CARTESIAN_POINT ( 'NONE',  ( -12.50000000000000000, 19.00000000000000000, 0.0000000000000000000 ) ) ;
#115 = SECURITY_CLASSIFICATION ( '', '', #55 ) ;
#116 = CARTESIAN_POINT ( 'NONE',  ( -12.49999999999999500, -19.00000000000000000, 3.000000000000000000 ) ) ;
#117 = CARTESIAN_POINT ( 'NONE',  ( -12.50000000000000000, 19.00000000000000000, 3.000000000000000000 ) ) ;
#118 = EDGE_CURVE ( 'NONE', #10, #213, #186, .T. ) ;
#119 = ADVANCED_FACE ( 'NONE', ( #17 ), #65, .F. ) ;
#120 = LINE ( 'NONE', #172, #188 ) ;
#121 = APPROVAL_STATUS ( 'not_yet_approved' ) ;
#122 = VERTEX_POINT ( 'NONE', #35 ) ;
#123 = CALENDAR_DATE ( 2017, 31, 1 ) ;
#124 = VECTOR ( 'NONE', #98, 1000.000000000000000 ) ;
#125 = ORIENTED_EDGE ( 'NONE', *, *, #225, .F. ) ;
#126 = DATE_AND_TIME ( #235, #179 ) ;
#127 = PLANE ( 'NONE',  #19 ) ;
#128 = CARTESIAN_POINT ( 'NONE',  ( -12.50000000000000000, 19.00000000000000000, 0.0000000000000000000 ) ) ;
#129 = VECTOR ( 'NONE', #158, 1000.000000000000000 ) ;
#130 = CARTESIAN_POINT ( 'NONE',  ( 12.50000000000000500, -18.99999999999999600, 0.0000000000000000000 ) ) ;
#131 = CC_DESIGN_SECURITY_CLASSIFICATION ( #115, ( #23 ) ) ;
#132 = PERSON ( 'UNSPECIFIED', 'UNSPECIFIED', 'UNSPECIFIED', ('UNSPECIFIED'), ('UNSPECIFIED'), ('UNSPECIFIED') ) ;
#133 = DIRECTION ( 'NONE',  ( -1.000000000000000000, 0.0000000000000000000, -0.0000000000000000000 ) ) ;
#134 = CARTESIAN_POINT ( 'NONE',  ( -12.49999999999999500, -19.00000000000000000, 0.0000000000000000000 ) ) ;
#135 = EDGE_CURVE ( 'NONE', #29, #76, #66, .T. ) ;
#136 = ORIENTED_EDGE ( 'NONE', *, *, #2, .F. ) ;
#137 =( NAMED_UNIT ( * ) SI_UNIT ( $, .STERADIAN. ) SOLID_ANGLE_UNIT ( ) );
#138 = CC_DESIGN_PERSON_AND_ORGANIZATION_ASSIGNMENT ( #154, #159, ( #115 ) ) ;
#139 = PERSON_AND_ORGANIZATION_ROLE ( 'design_owner' ) ;
#140 = APPROVAL_DATE_TIME ( #146, #43 ) ;
#141 = DIRECTION ( 'NONE',  ( 1.000000000000000000, 0.0000000000000000000, 0.0000000000000000000 ) ) ;
#142 = EDGE_CURVE ( 'NONE', #10, #164, #170, .T. ) ;
#143 = CALENDAR_DATE ( 2017, 31, 1 ) ;
#144 = AXIS2_PLACEMENT_3D ( 'NONE', #16, #37, #83 ) ;
#145 = VECTOR ( 'NONE', #169, 1000.000000000000000 ) ;
#146 = DATE_AND_TIME ( #143, #224 ) ;
#147 = LINE ( 'NONE', #8, #145 ) ;
#148 = DIRECTION ( 'NONE',  ( -1.000000000000000000, 0.0000000000000000000, -0.0000000000000000000 ) ) ;
#149 = DIRECTION ( 'NONE',  ( 1.369518533665900300E-016, -1.000000000000000000, 0.0000000000000000000 ) ) ;
#150 = EDGE_LOOP ( 'NONE', ( #67, #236, #102, #27 ) ) ;
#151 = CC_DESIGN_DATE_AND_TIME_ASSIGNMENT ( #223, #84, ( #115 ) ) ;
#152 = CARTESIAN_POINT ( 'NONE',  ( 12.50000000000000500, -18.99999999999999600, 3.000000000000000000 ) ) ;
#153 = CARTESIAN_POINT ( 'NONE',  ( -12.50000000000000000, 19.00000000000000000, 3.000000000000000000 ) ) ;
#154 = PERSON_AND_ORGANIZATION ( #132, #193 ) ;
#155 = PERSON_AND_ORGANIZATION ( #132, #193 ) ;
#156 = DIRECTION ( 'NONE',  ( -0.0000000000000000000, -0.0000000000000000000, -1.000000000000000000 ) ) ;
#157 = ORIENTED_EDGE ( 'NONE', *, *, #111, .T. ) ;
#158 = DIRECTION ( 'NONE',  ( 1.000000000000000000, 1.387778780781445700E-016, -0.0000000000000000000 ) ) ;
#159 = PERSON_AND_ORGANIZATION_ROLE ( 'classification_officer' ) ;
#160 =( GEOMETRIC_REPRESENTATION_CONTEXT ( 3 ) GLOBAL_UNCERTAINTY_ASSIGNED_CONTEXT ( ( #181 ) ) GLOBAL_UNIT_ASSIGNED_CONTEXT ( ( #234, #15, #137 ) ) REPRESENTATION_CONTEXT ( 'NONE', 'WORKASPACE' ) );
#161 = DESIGN_CONTEXT ( 'detailed design', #195, 'design' ) ;
#162 = APPROVAL_PERSON_ORGANIZATION ( #26, #199, #237 ) ;
#163 = PERSON_AND_ORGANIZATION ( #132, #193 ) ;
#164 = VERTEX_POINT ( 'NONE', #134 ) ;
#165 = CALENDAR_DATE ( 2017, 31, 1 ) ;
#166 = ORIENTED_EDGE ( 'NONE', *, *, #70, .F. ) ;
#167 = AXIS2_PLACEMENT_3D ( 'NONE', #116, #210, #133 ) ;
#168 = ORIENTED_EDGE ( 'NONE', *, *, #229, .T. ) ;
#169 = DIRECTION ( 'NONE',  ( -1.369518533665900300E-016, 1.000000000000000000, -0.0000000000000000000 ) ) ;
#170 = LINE ( 'NONE', #212, #124 ) ;
#171 = ORIENTED_EDGE ( 'NONE', *, *, #88, .F. ) ;
#172 = CARTESIAN_POINT ( 'NONE',  ( 12.50000000000000500, -18.99999999999999600, 3.000000000000000000 ) ) ;
#173 = LOCAL_TIME ( 14, 50, 20.00000000000000000, #42 ) ;
#174 = ORIENTED_EDGE ( 'NONE', *, *, #111, .F. ) ;
#175 = CC_DESIGN_PERSON_AND_ORGANIZATION_ASSIGNMENT ( #211, #216, ( #23 ) ) ;
#176 = CARTESIAN_POINT ( 'NONE',  ( 12.50000000000000500, -18.99999999999999600, 3.000000000000000000 ) ) ;
#177 = VERTEX_POINT ( 'NONE', #78 ) ;
#178 = ADVANCED_FACE ( 'NONE', ( #108 ), #13, .F. ) ;
#179 = LOCAL_TIME ( 14, 50, 20.00000000000000000, #52 ) ;
#180 = AXIS2_PLACEMENT_3D ( 'NONE', #202, #94, #226 ) ;
#181 = UNCERTAINTY_MEASURE_WITH_UNIT (LENGTH_MEASURE( 1.000000000000000100E-005 ), #234, 'distance_accuracy_value', 'NONE');
#182 = PERSON_AND_ORGANIZATION ( #132, #193 ) ;
#183 = LINE ( 'NONE', #77, #5 ) ;
#184 = AXIS2_PLACEMENT_3D ( 'NONE', #205, #31, #32 ) ;
#185 = CC_DESIGN_APPROVAL ( #199, ( #115 ) ) ;
#186 = LINE ( 'NONE', #176, #129 ) ;
#187 = VECTOR ( 'NONE', #190, 1000.000000000000000 ) ;
#188 = VECTOR ( 'NONE', #156, 1000.000000000000000 ) ;
#189 = APPROVAL_PERSON_ORGANIZATION ( #6, #43, #57 ) ;
#190 = DIRECTION ( 'NONE',  ( -1.000000000000000000, -1.387778780781445700E-016, 0.0000000000000000000 ) ) ;
#191 = PRODUCT_DEFINITION_SHAPE ( 'NONE', 'NONE',  #227 ) ;
#192 = PLANE ( 'NONE',  #207 ) ;
#193 = ORGANIZATION ( 'UNSPECIFIED', 'UNSPECIFIED', '' ) ;
#194 = ORIENTED_EDGE ( 'NONE', *, *, #135, .F. ) ;
#195 = APPLICATION_CONTEXT ( 'configuration controlled 3d designs of mechanical parts and assemblies' ) ;
#196 = VECTOR ( 'NONE', #149, 1000.000000000000000 ) ;
#197 = EDGE_CURVE ( 'NONE', #60, #122, #231, .T. ) ;
#198 = MECHANICAL_CONTEXT ( 'NONE', #107, 'mechanical' ) ;
#199 = APPROVAL ( #103, 'UNSPECIFIED' ) ;
#200 = MANIFOLD_SOLID_BREP ( 'Extrude1', #218 ) ;
#201 = CALENDAR_DATE ( 2017, 31, 1 ) ;
#202 = CARTESIAN_POINT ( 'NONE',  ( 12.50000000000000000, 19.00000000000000400, 3.000000000000000000 ) ) ;
#203 = LOCAL_TIME ( 14, 50, 20.00000000000000000, #56 ) ;
#204 = ORIENTED_EDGE ( 'NONE', *, *, #21, .T. ) ;
#205 = CARTESIAN_POINT ( 'NONE',  ( -12.50000000000000000, 19.00000000000000000, 3.000000000000000000 ) ) ;
#206 = ADVANCED_BREP_SHAPE_REPRESENTATION ( 'Web Model 68371', ( #200, #38 ), #160 ) ;
#207 = AXIS2_PLACEMENT_3D ( 'NONE', #152, #81, #100 ) ;
#208 = LOCAL_TIME ( 14, 50, 20.00000000000000000, #112 ) ;
#209 = ORIENTED_EDGE ( 'NONE', *, *, #118, .F. ) ;
#210 = DIRECTION ( 'NONE',  ( 0.0000000000000000000, 0.0000000000000000000, -1.000000000000000000 ) ) ;
#211 = PERSON_AND_ORGANIZATION ( #132, #193 ) ;
#212 = CARTESIAN_POINT ( 'NONE',  ( -12.49999999999999500, -19.00000000000000000, 3.000000000000000000 ) ) ;
#213 = VERTEX_POINT ( 'NONE', #51 ) ;
#214 = ADVANCED_FACE ( 'NONE', ( #85 ), #192, .F. ) ;
#215 = CARTESIAN_POINT ( 'NONE',  ( 0.0000000000000000000, 0.0000000000000000000, 0.0000000000000000000 ) ) ;
#216 = PERSON_AND_ORGANIZATION_ROLE ( 'creator' ) ;
#217 = DATE_AND_TIME ( #201, #208 ) ;
#218 = CLOSED_SHELL ( 'NONE', ( #106, #214, #178, #97, #119, #50 ) ) ;
#219 = DATE_TIME_ROLE ( 'creation_date' ) ;
#220 = APPROVAL_DATE_TIME ( #72, #48 ) ;
#221 = ORIENTED_EDGE ( 'NONE', *, *, #118, .T. ) ;
#222 = ORIENTED_EDGE ( 'NONE', *, *, #142, .T. ) ;
#223 = DATE_AND_TIME ( #165, #203 ) ;
#224 = LOCAL_TIME ( 14, 50, 20.00000000000000000, #89 ) ;
#225 = EDGE_CURVE ( 'NONE', #122, #76, #3, .T. ) ;
#226 = DIRECTION ( 'NONE',  ( 1.000000000000000000, 1.387778780781445400E-016, 0.0000000000000000000 ) ) ;
#227 = PRODUCT_DEFINITION ( 'UNKNOWN', '', #23, #161 ) ;
#228 = CARTESIAN_POINT ( 'NONE',  ( 12.50000000000000000, 19.00000000000000400, 3.000000000000000000 ) ) ;
#229 = EDGE_CURVE ( 'NONE', #29, #10, #99, .T. ) ;
#230 = CARTESIAN_POINT ( 'NONE',  ( -12.49999999999999500, -19.00000000000000000, 0.0000000000000000000 ) ) ;
#231 = LINE ( 'NONE', #53, #92 ) ;
#232 = EDGE_LOOP ( 'NONE', ( #59, #194, #166, #204 ) ) ;
#233 = CARTESIAN_POINT ( 'NONE',  ( -12.50000000000000000, 19.00000000000000000, 3.000000000000000000 ) ) ;
#234 =( LENGTH_UNIT ( ) NAMED_UNIT ( * ) SI_UNIT ( .MILLI., .METRE. ) );
#235 = CALENDAR_DATE ( 2017, 31, 1 ) ;
#236 = ORIENTED_EDGE ( 'NONE', *, *, #142, .F. ) ;
#237 = APPROVAL_ROLE ( '' ) ;
ENDSEC;
END-ISO-10303-21;
