ISO-10303-21;
HEADER;
FILE_DESCRIPTION (( 'STEP AP203' ),
    '1' );
FILE_NAME ('Web Model 19627_19630.step',
    '2022-01-11T21:32:35',
    ( '' ),
    ( '' ),
    'SwSTEP 2.0',
    'SolidWorks 2018',
    '' );
FILE_SCHEMA (( 'CONFIG_CONTROL_DESIGN' ));
ENDSEC;

DATA;
#1 =( NAMED_UNIT ( * ) SI_UNIT ( $, .STERADIAN. ) SOLID_ANGLE_UNIT ( ) );
#2 = EDGE_LOOP ( 'NONE', ( #22, #64, #46, #45 ) ) ;
#3 = EDGE_CURVE ( 'NONE', #6, #90, #141, .T. ) ;
#4 = DESIGN_CONTEXT ( 'detailed design', #152, 'design' ) ;
#5 = APPROVAL_PERSON_ORGANIZATION ( #17, #12, #43 ) ;
#6 = VERTEX_POINT ( 'NONE', #92 ) ;
#7 = ORIENTED_EDGE ( 'NONE', *, *, #81, .T. ) ;
#8 = CARTESIAN_POINT ( 'NONE',  ( -38.10000000000000142, 0.000000000000000000, 1.520000000000000018 ) ) ;
#9 = ADVANCED_FACE ( 'NONE', ( #143 ), #34, .T. ) ;
#10 = DIRECTION ( 'NONE',  ( -0.000000000000000000, -0.000000000000000000, -1.000000000000000000 ) ) ;
#11 = ADVANCED_FACE ( 'NONE', ( #112 ), #28, .T. ) ;
#12 = APPROVAL ( #16, 'UNSPECIFIED' ) ;
#13 = DIRECTION ( 'NONE',  ( -0.000000000000000000, -0.000000000000000000, -1.000000000000000000 ) ) ;
#14 = AXIS2_PLACEMENT_3D ( 'NONE', #107, #52, #144 ) ;
#15 = LOCAL_TIME ( 16, 32, 35.00000000000000000, #49 ) ;
#16 = APPROVAL_STATUS ( 'not_yet_approved' ) ;
#17 = PERSON_AND_ORGANIZATION ( #132, #88 ) ;
#18 = DIRECTION ( 'NONE',  ( 0.000000000000000000, 0.000000000000000000, 1.000000000000000000 ) ) ;
#19 = CIRCLE ( 'NONE', #75, 38.10000000000000142 ) ;
#20 = APPROVAL_DATE_TIME ( #29, #39 ) ;
#21 = CC_DESIGN_DATE_AND_TIME_ASSIGNMENT ( #103, #33, ( #47 ) ) ;
#22 = ORIENTED_EDGE ( 'NONE', *, *, #68, .F. ) ;
#23 = CC_DESIGN_SECURITY_CLASSIFICATION ( #47, ( #57 ) ) ;
#24 = COORDINATED_UNIVERSAL_TIME_OFFSET ( 5, 0, .BEHIND. ) ;
#25 = APPROVAL_PERSON_ORGANIZATION ( #93, #39, #116 ) ;
#26 = DIRECTION ( 'NONE',  ( 1.000000000000000000, 0.000000000000000000, -0.000000000000000000 ) ) ;
#27 = DIRECTION ( 'NONE',  ( 1.000000000000000000, 0.000000000000000000, 0.000000000000000000 ) ) ;
#28 = PLANE ( 'NONE',  #14 ) ;
#29 = DATE_AND_TIME ( #161, #15 ) ;
#30 = LOCAL_TIME ( 16, 32, 35.00000000000000000, #117 ) ;
#31 = DIRECTION ( 'NONE',  ( 1.000000000000000000, 0.000000000000000000, 0.000000000000000000 ) ) ;
#32 =( NAMED_UNIT ( * ) PLANE_ANGLE_UNIT ( ) SI_UNIT ( $, .RADIAN. ) );
#33 = DATE_TIME_ROLE ( 'classification_date' ) ;
#34 = CYLINDRICAL_SURFACE ( 'NONE', #155, 38.10000000000000142 ) ;
#35 = CC_DESIGN_PERSON_AND_ORGANIZATION_ASSIGNMENT ( #167, #84, ( #47 ) ) ;
#36 = ORIENTED_EDGE ( 'NONE', *, *, #48, .T. ) ;
#37 = DIRECTION ( 'NONE',  ( 0.000000000000000000, 0.000000000000000000, 1.000000000000000000 ) ) ;
#38 = ADVANCED_FACE ( 'NONE', ( #105 ), #66, .F. ) ;
#39 = APPROVAL ( #140, 'UNSPECIFIED' ) ;
#40 = COORDINATED_UNIVERSAL_TIME_OFFSET ( 5, 0, .BEHIND. ) ;
#41 = APPLICATION_CONTEXT ( 'configuration controlled 3d designs of mechanical parts and assemblies' ) ;
#42 = LINE ( 'NONE', #172, #104 ) ;
#43 = APPROVAL_ROLE ( '' ) ;
#44 = APPROVAL_PERSON_ORGANIZATION ( #134, #70, #82 ) ;
#45 = ORIENTED_EDGE ( 'NONE', *, *, #81, .F. ) ;
#46 = ORIENTED_EDGE ( 'NONE', *, *, #3, .T. ) ;
#47 = SECURITY_CLASSIFICATION ( '', '', #115 ) ;
#48 = EDGE_CURVE ( 'NONE', #142, #58, #153, .T. ) ;
#49 = COORDINATED_UNIVERSAL_TIME_OFFSET ( 5, 0, .BEHIND. ) ;
#50 = CARTESIAN_POINT ( 'NONE',  ( 38.10000000000000142, 4.665904304751416087E-15, 1.520000000000000018 ) ) ;
#51 = CARTESIAN_POINT ( 'NONE',  ( 0.000000000000000000, 0.000000000000000000, 0.000000000000000000 ) ) ;
#52 = DIRECTION ( 'NONE',  ( 0.000000000000000000, 0.000000000000000000, 1.000000000000000000 ) ) ;
#53 = EDGE_LOOP ( 'NONE', ( #73, #137, #7, #165 ) ) ;
#54 = VECTOR ( 'NONE', #10, 1000.000000000000000 ) ;
#55 = CC_DESIGN_DATE_AND_TIME_ASSIGNMENT ( #131, #162, ( #163 ) ) ;
#56 = LOCAL_TIME ( 16, 32, 35.00000000000000000, #156 ) ;
#57 = PRODUCT_DEFINITION_FORMATION_WITH_SPECIFIED_SOURCE ( 'ANY', '', #76, .NOT_KNOWN. ) ;
#58 = VERTEX_POINT ( 'NONE', #158 ) ;
#59 = DATE_AND_TIME ( #74, #30 ) ;
#60 = PERSON_AND_ORGANIZATION ( #132, #88 ) ;
#61 = PERSON_AND_ORGANIZATION ( #132, #88 ) ;
#62 = CARTESIAN_POINT ( 'NONE',  ( 0.000000000000000000, 0.000000000000000000, 1.520000000000000018 ) ) ;
#63 = AXIS2_PLACEMENT_3D ( 'NONE', #108, #159, #26 ) ;
#64 = ORIENTED_EDGE ( 'NONE', *, *, #78, .T. ) ;
#65 = CARTESIAN_POINT ( 'NONE',  ( 0.000000000000000000, 0.000000000000000000, 0.000000000000000000 ) ) ;
#66 = PLANE ( 'NONE',  #63 ) ;
#67 =( LENGTH_UNIT ( ) NAMED_UNIT ( * ) SI_UNIT ( .MILLI., .METRE. ) );
#68 = EDGE_CURVE ( 'NONE', #58, #142, #19, .T. ) ;
#69 = PERSON_AND_ORGANIZATION ( #132, #88 ) ;
#70 = APPROVAL ( #154, 'UNSPECIFIED' ) ;
#71 = CC_DESIGN_PERSON_AND_ORGANIZATION_ASSIGNMENT ( #61, #129, ( #163 ) ) ;
#72 = PRODUCT_DEFINITION_SHAPE ( 'NONE', 'NONE',  #163 ) ;
#73 = ORIENTED_EDGE ( 'NONE', *, *, #78, .F. ) ;
#74 = CALENDAR_DATE ( 2022, 11, 1 ) ;
#75 = AXIS2_PLACEMENT_3D ( 'NONE', #135, #37, #97 ) ;
#76 = PRODUCT ( 'Web Model 19627_19630', 'Web Model 19627_19630', '', ( #114 ) ) ;
#77 = CIRCLE ( 'NONE', #166, 38.10000000000000142 ) ;
#78 = EDGE_CURVE ( 'NONE', #58, #6, #124, .T. ) ;
#79 = CARTESIAN_POINT ( 'NONE',  ( 0.000000000000000000, 0.000000000000000000, 1.520000000000000018 ) ) ;
#80 = CARTESIAN_POINT ( 'NONE',  ( 0.000000000000000000, 0.000000000000000000, 1.520000000000000018 ) ) ;
#81 = EDGE_CURVE ( 'NONE', #142, #90, #42, .T. ) ;
#82 = APPROVAL_ROLE ( '' ) ;
#83 = PERSON_AND_ORGANIZATION_ROLE ( 'design_supplier' ) ;
#84 = PERSON_AND_ORGANIZATION_ROLE ( 'classification_officer' ) ;
#85 = FACE_OUTER_BOUND ( 'NONE', #2, .T. ) ;
#86 = CC_DESIGN_PERSON_AND_ORGANIZATION_ASSIGNMENT ( #60, #127, ( #57 ) ) ;
#87 = LOCAL_TIME ( 16, 32, 35.00000000000000000, #24 ) ;
#88 = ORGANIZATION ( 'UNSPECIFIED', 'UNSPECIFIED', '' ) ;
#89 = AXIS2_PLACEMENT_3D ( 'NONE', #51, #146, #27 ) ;
#90 = VERTEX_POINT ( 'NONE', #147 ) ;
#91 = AXIS2_PLACEMENT_3D ( 'NONE', #62, #122, #139 ) ;
#92 = CARTESIAN_POINT ( 'NONE',  ( 38.10000000000000142, 4.665904304751416087E-15, 0.000000000000000000 ) ) ;
#93 = PERSON_AND_ORGANIZATION ( #132, #88 ) ;
#94 = CC_DESIGN_PERSON_AND_ORGANIZATION_ASSIGNMENT ( #99, #164, ( #76 ) ) ;
#95 = DIRECTION ( 'NONE',  ( -0.000000000000000000, -0.000000000000000000, -1.000000000000000000 ) ) ;
#96 = CARTESIAN_POINT ( 'NONE',  ( 0.000000000000000000, 0.000000000000000000, 0.000000000000000000 ) ) ;
#97 = DIRECTION ( 'NONE',  ( 1.000000000000000000, 0.000000000000000000, 0.000000000000000000 ) ) ;
#98 = CC_DESIGN_APPROVAL ( #12, ( #47 ) ) ;
#99 = PERSON_AND_ORGANIZATION ( #132, #88 ) ;
#100 = APPLICATION_PROTOCOL_DEFINITION ( 'international standard', 'config_control_design', 1994, #152 ) ;
#101 = DATE_AND_TIME ( #136, #149 ) ;
#102 = ORIENTED_EDGE ( 'NONE', *, *, #68, .T. ) ;
#103 = DATE_AND_TIME ( #171, #87 ) ;
#104 = VECTOR ( 'NONE', #95, 1000.000000000000000 ) ;
#105 = FACE_OUTER_BOUND ( 'NONE', #145, .T. ) ;
#106 = CC_DESIGN_PERSON_AND_ORGANIZATION_ASSIGNMENT ( #69, #83, ( #57 ) ) ;
#107 = CARTESIAN_POINT ( 'NONE',  ( 0.000000000000000000, 0.000000000000000000, 1.520000000000000018 ) ) ;
#108 = CARTESIAN_POINT ( 'NONE',  ( 0.000000000000000000, 0.000000000000000000, 0.000000000000000000 ) ) ;
#109 = APPROVAL_DATE_TIME ( #59, #12 ) ;
#110 = DIRECTION ( 'NONE',  ( -1.000000000000000000, 0.000000000000000000, 0.000000000000000000 ) ) ;
#111 = CC_DESIGN_APPROVAL ( #39, ( #163 ) ) ;
#112 = FACE_OUTER_BOUND ( 'NONE', #173, .T. ) ;
#113 = APPLICATION_PROTOCOL_DEFINITION ( 'international standard', 'config_control_design', 1994, #41 ) ;
#114 = MECHANICAL_CONTEXT ( 'NONE', #41, 'mechanical' ) ;
#115 = SECURITY_CLASSIFICATION_LEVEL ( 'unclassified' ) ;
#116 = APPROVAL_ROLE ( '' ) ;
#117 = COORDINATED_UNIVERSAL_TIME_OFFSET ( 5, 0, .BEHIND. ) ;
#118 = ADVANCED_BREP_SHAPE_REPRESENTATION ( 'Web Model 19627_19630', ( #150, #169 ), #174 ) ;
#119 = CYLINDRICAL_SURFACE ( 'NONE', #123, 38.10000000000000142 ) ;
#120 = ORIENTED_EDGE ( 'NONE', *, *, #148, .F. ) ;
#121 = PRODUCT_RELATED_PRODUCT_CATEGORY ( 'detail', '', ( #76 ) ) ;
#122 = DIRECTION ( 'NONE',  ( 0.000000000000000000, 0.000000000000000000, 1.000000000000000000 ) ) ;
#123 = AXIS2_PLACEMENT_3D ( 'NONE', #80, #13, #110 ) ;
#124 = LINE ( 'NONE', #50, #54 ) ;
#125 = DIRECTION ( 'NONE',  ( -0.000000000000000000, -0.000000000000000000, -1.000000000000000000 ) ) ;
#126 = CC_DESIGN_APPROVAL ( #70, ( #57 ) ) ;
#127 = PERSON_AND_ORGANIZATION_ROLE ( 'creator' ) ;
#128 = SHAPE_DEFINITION_REPRESENTATION ( #72, #118 ) ;
#129 = PERSON_AND_ORGANIZATION_ROLE ( 'creator' ) ;
#130 = CLOSED_SHELL ( 'NONE', ( #138, #9, #11, #38 ) ) ;
#131 = DATE_AND_TIME ( #168, #56 ) ;
#132 = PERSON ( 'UNSPECIFIED', 'UNSPECIFIED', 'UNSPECIFIED', ('UNSPECIFIED'), ('UNSPECIFIED'), ('UNSPECIFIED') ) ;
#133 = UNCERTAINTY_MEASURE_WITH_UNIT (LENGTH_MEASURE( 1.000000000000000082E-05 ), #67, 'distance_accuracy_value', 'NONE');
#134 = PERSON_AND_ORGANIZATION ( #132, #88 ) ;
#135 = CARTESIAN_POINT ( 'NONE',  ( 0.000000000000000000, 0.000000000000000000, 1.520000000000000018 ) ) ;
#136 = CALENDAR_DATE ( 2022, 11, 1 ) ;
#137 = ORIENTED_EDGE ( 'NONE', *, *, #48, .F. ) ;
#138 = ADVANCED_FACE ( 'NONE', ( #85 ), #119, .T. ) ;
#139 = DIRECTION ( 'NONE',  ( 1.000000000000000000, 0.000000000000000000, 0.000000000000000000 ) ) ;
#140 = APPROVAL_STATUS ( 'not_yet_approved' ) ;
#141 = CIRCLE ( 'NONE', #89, 38.10000000000000142 ) ;
#142 = VERTEX_POINT ( 'NONE', #8 ) ;
#143 = FACE_OUTER_BOUND ( 'NONE', #53, .T. ) ;
#144 = DIRECTION ( 'NONE',  ( 1.000000000000000000, 0.000000000000000000, -0.000000000000000000 ) ) ;
#145 = EDGE_LOOP ( 'NONE', ( #120, #170 ) ) ;
#146 = DIRECTION ( 'NONE',  ( 0.000000000000000000, 0.000000000000000000, 1.000000000000000000 ) ) ;
#147 = CARTESIAN_POINT ( 'NONE',  ( -38.10000000000000142, 0.000000000000000000, 0.000000000000000000 ) ) ;
#148 = EDGE_CURVE ( 'NONE', #90, #6, #77, .T. ) ;
#149 = LOCAL_TIME ( 16, 32, 35.00000000000000000, #40 ) ;
#150 = MANIFOLD_SOLID_BREP ( 'Boss-Extrude1', #130 ) ;
#151 = APPROVAL_DATE_TIME ( #101, #70 ) ;
#153 = CIRCLE ( 'NONE', #91, 38.10000000000000142 ) ;
#152 = APPLICATION_CONTEXT ( 'configuration controlled 3d designs of mechanical parts and assemblies' ) ;
#154 = APPROVAL_STATUS ( 'not_yet_approved' ) ;
#155 = AXIS2_PLACEMENT_3D ( 'NONE', #79, #125, #175 ) ;
#156 = COORDINATED_UNIVERSAL_TIME_OFFSET ( 5, 0, .BEHIND. ) ;
#157 = DIRECTION ( 'NONE',  ( 0.000000000000000000, 0.000000000000000000, 1.000000000000000000 ) ) ;
#158 = CARTESIAN_POINT ( 'NONE',  ( 38.10000000000000142, 4.665904304751416087E-15, 1.520000000000000018 ) ) ;
#159 = DIRECTION ( 'NONE',  ( 0.000000000000000000, 0.000000000000000000, 1.000000000000000000 ) ) ;
#160 = DIRECTION ( 'NONE',  ( 1.000000000000000000, 0.000000000000000000, 0.000000000000000000 ) ) ;
#161 = CALENDAR_DATE ( 2022, 11, 1 ) ;
#162 = DATE_TIME_ROLE ( 'creation_date' ) ;
#163 = PRODUCT_DEFINITION ( 'UNKNOWN', '', #57, #4 ) ;
#164 = PERSON_AND_ORGANIZATION_ROLE ( 'design_owner' ) ;
#165 = ORIENTED_EDGE ( 'NONE', *, *, #148, .T. ) ;
#166 = AXIS2_PLACEMENT_3D ( 'NONE', #96, #18, #160 ) ;
#167 = PERSON_AND_ORGANIZATION ( #132, #88 ) ;
#168 = CALENDAR_DATE ( 2022, 11, 1 ) ;
#169 = AXIS2_PLACEMENT_3D ( 'NONE', #65, #157, #31 ) ;
#170 = ORIENTED_EDGE ( 'NONE', *, *, #3, .F. ) ;
#171 = CALENDAR_DATE ( 2022, 11, 1 ) ;
#172 = CARTESIAN_POINT ( 'NONE',  ( -38.10000000000000142, 0.000000000000000000, 1.520000000000000018 ) ) ;
#173 = EDGE_LOOP ( 'NONE', ( #36, #102 ) ) ;
#174 =( GEOMETRIC_REPRESENTATION_CONTEXT ( 3 ) GLOBAL_UNCERTAINTY_ASSIGNED_CONTEXT ( ( #133 ) ) GLOBAL_UNIT_ASSIGNED_CONTEXT ( ( #67, #32, #1 ) ) REPRESENTATION_CONTEXT ( 'NONE', 'WORKASPACE' ) );
#175 = DIRECTION ( 'NONE',  ( -1.000000000000000000, 0.000000000000000000, 0.000000000000000000 ) ) ;
ENDSEC;
END-ISO-10303-21;
