ISO-10303-21;
HEADER;
FILE_DESCRIPTION (( 'STEP AP203' ),
    '1' );
FILE_NAME ('Web Model 47680_55848.step',
    '2021-04-23T17:58:00',
    ( '' ),
    ( '' ),
    'SwSTEP 2.0',
    'SolidWorks 2018',
    '' );
FILE_SCHEMA (( 'CONFIG_CONTROL_DESIGN' ));
ENDSEC;

DATA;
#1 = ORIENTED_EDGE ( 'NONE', *, *, #285, .F. ) ;
#2 = CIRCLE ( 'NONE', #63, 10.80000000000000071 ) ;
#3 = UNCERTAINTY_MEASURE_WITH_UNIT (LENGTH_MEASURE( 1.000000000000000082E-05 ), #161, 'distance_accuracy_value', 'NONE');
#4 = EDGE_LOOP ( 'NONE', ( #54, #69 ) ) ;
#5 = CIRCLE ( 'NONE', #256, 12.50000000000000000 ) ;
#6 = CALENDAR_DATE ( 2021, 23, 4 ) ;
#7 = CARTESIAN_POINT ( 'NONE',  ( 0.000000000000000000, 0.000000000000000000, -0.2000000000000000111 ) ) ;
#8 = DIRECTION ( 'NONE',  ( 1.000000000000000000, 0.000000000000000000, 0.000000000000000000 ) ) ;
#9 = ORIENTED_EDGE ( 'NONE', *, *, #258, .T. ) ;
#10 = PLANE ( 'NONE',  #46 ) ;
#11 = ORIENTED_EDGE ( 'NONE', *, *, #17, .T. ) ;
#12 = LOCAL_TIME ( 13, 58, 0.000000000000000000, #83 ) ;
#13 = DIRECTION ( 'NONE',  ( 1.000000000000000000, 0.000000000000000000, 0.000000000000000000 ) ) ;
#14 = ADVANCED_FACE ( 'NONE', ( #44 ), #99, .F. ) ;
#15 = DIRECTION ( 'NONE',  ( 0.000000000000000000, 0.000000000000000000, 1.000000000000000000 ) ) ;
#16 = DIRECTION ( 'NONE',  ( 1.000000000000000000, 0.000000000000000000, 0.000000000000000000 ) ) ;
#17 = EDGE_CURVE ( 'NONE', #36, #182, #226, .T. ) ;
#18 = DIRECTION ( 'NONE',  ( -0.000000000000000000, -0.000000000000000000, -1.000000000000000000 ) ) ;
#19 = DIRECTION ( 'NONE',  ( 0.000000000000000000, 0.000000000000000000, 1.000000000000000000 ) ) ;
#20 = ORIENTED_EDGE ( 'NONE', *, *, #246, .T. ) ;
#21 = CARTESIAN_POINT ( 'NONE',  ( 0.000000000000000000, 0.000000000000000000, 4.500000000000000000 ) ) ;
#22 = PERSON_AND_ORGANIZATION ( #94, #62 ) ;
#23 = AXIS2_PLACEMENT_3D ( 'NONE', #209, #240, #238 ) ;
#24 = ORIENTED_EDGE ( 'NONE', *, *, #136, .F. ) ;
#25 = APPROVAL_STATUS ( 'not_yet_approved' ) ;
#26 = CC_DESIGN_PERSON_AND_ORGANIZATION_ASSIGNMENT ( #22, #223, ( #334 ) ) ;
#27 = DATE_AND_TIME ( #165, #228 ) ;
#28 = VECTOR ( 'NONE', #148, 1000.000000000000000 ) ;
#29 = PERSON_AND_ORGANIZATION ( #94, #62 ) ;
#30 = CC_DESIGN_APPROVAL ( #316, ( #334 ) ) ;
#31 = ORIENTED_EDGE ( 'NONE', *, *, #231, .F. ) ;
#32 = PRODUCT_DEFINITION_FORMATION_WITH_SPECIFIED_SOURCE ( 'ANY', '', #45, .NOT_KNOWN. ) ;
#33 = COORDINATED_UNIVERSAL_TIME_OFFSET ( 5, 0, .BEHIND. ) ;
#34 = EDGE_CURVE ( 'NONE', #82, #164, #210, .T. ) ;
#35 = CARTESIAN_POINT ( 'NONE',  ( -10.80000000000000071, 1.322618543079141493E-15, -0.2000000000000000111 ) ) ;
#36 = VERTEX_POINT ( 'NONE', #59 ) ;
#37 = CARTESIAN_POINT ( 'NONE',  ( 12.50000000000000000, 0.000000000000000000, 4.500000000000000000 ) ) ;
#38 = CALENDAR_DATE ( 2021, 23, 4 ) ;
#39 = DIRECTION ( 'NONE',  ( 0.000000000000000000, 0.000000000000000000, 1.000000000000000000 ) ) ;
#40 = AXIS2_PLACEMENT_3D ( 'NONE', #170, #41, #172 ) ;
#41 = DIRECTION ( 'NONE',  ( 0.000000000000000000, 0.000000000000000000, 1.000000000000000000 ) ) ;
#42 = VERTEX_POINT ( 'NONE', #85 ) ;
#43 = DIRECTION ( 'NONE',  ( 0.000000000000000000, 0.000000000000000000, 1.000000000000000000 ) ) ;
#44 = FACE_OUTER_BOUND ( 'NONE', #208, .T. ) ;
#45 = PRODUCT ( 'Web Model 47680_55848', 'Web Model 47680_55848', '', ( #183 ) ) ;
#46 = AXIS2_PLACEMENT_3D ( 'NONE', #322, #196, #241 ) ;
#47 = APPROVAL_PERSON_ORGANIZATION ( #186, #316, #225 ) ;
#48 = CARTESIAN_POINT ( 'NONE',  ( -10.80000000000000071, 1.322618543079141493E-15, -0.2000000000000000111 ) ) ;
#49 = DIRECTION ( 'NONE',  ( 0.000000000000000000, 0.000000000000000000, 1.000000000000000000 ) ) ;
#50 = EDGE_LOOP ( 'NONE', ( #200, #24, #302, #20 ) ) ;
#51 = DIRECTION ( 'NONE',  ( 1.000000000000000000, 0.000000000000000000, 0.000000000000000000 ) ) ;
#52 = PERSON_AND_ORGANIZATION_ROLE ( 'creator' ) ;
#53 = SECURITY_CLASSIFICATION ( '', '', #255 ) ;
#54 = ORIENTED_EDGE ( 'NONE', *, *, #192, .T. ) ;
#55 = DIRECTION ( 'NONE',  ( 0.000000000000000000, 0.000000000000000000, 1.000000000000000000 ) ) ;
#56 = FACE_OUTER_BOUND ( 'NONE', #323, .T. ) ;
#57 = APPLICATION_PROTOCOL_DEFINITION ( 'international standard', 'config_control_design', 1994, #221 ) ;
#58 = ORIENTED_EDGE ( 'NONE', *, *, #168, .T. ) ;
#59 = CARTESIAN_POINT ( 'NONE',  ( 12.50000000000000000, 0.000000000000000000, -0.2000000000000000111 ) ) ;
#60 = ORIENTED_EDGE ( 'NONE', *, *, #246, .F. ) ;
#61 = CC_DESIGN_APPROVAL ( #195, ( #32 ) ) ;
#62 = ORGANIZATION ( 'UNSPECIFIED', 'UNSPECIFIED', '' ) ;
#63 = AXIS2_PLACEMENT_3D ( 'NONE', #152, #15, #154 ) ;
#64 = VECTOR ( 'NONE', #111, 1000.000000000000000 ) ;
#65 = CARTESIAN_POINT ( 'NONE',  ( 10.80000000000000071, 0.000000000000000000, -0.2000000000000000111 ) ) ;
#66 = LINE ( 'NONE', #48, #288 ) ;
#67 = DIRECTION ( 'NONE',  ( 1.000000000000000000, 0.000000000000000000, 0.000000000000000000 ) ) ;
#68 = DIRECTION ( 'NONE',  ( 0.000000000000000000, 0.000000000000000000, 1.000000000000000000 ) ) ;
#69 = ORIENTED_EDGE ( 'NONE', *, *, #78, .T. ) ;
#70 = CARTESIAN_POINT ( 'NONE',  ( -10.80000000000000071, 1.322618543079141493E-15, -0.2000000000000000111 ) ) ;
#71 = AXIS2_PLACEMENT_3D ( 'NONE', #156, #202, #129 ) ;
#72 = DIRECTION ( 'NONE',  ( 0.000000000000000000, 0.000000000000000000, 1.000000000000000000 ) ) ;
#73 = VECTOR ( 'NONE', #43, 1000.000000000000000 ) ;
#74 = CARTESIAN_POINT ( 'NONE',  ( -10.80000000000000071, 1.322618543079141493E-15, 4.500000000000000000 ) ) ;
#75 = APPROVAL_ROLE ( '' ) ;
#76 = FACE_OUTER_BOUND ( 'NONE', #252, .T. ) ;
#77 = PERSON_AND_ORGANIZATION_ROLE ( 'design_supplier' ) ;
#78 = EDGE_CURVE ( 'NONE', #112, #317, #308, .T. ) ;
#79 = DATE_TIME_ROLE ( 'creation_date' ) ;
#80 = VECTOR ( 'NONE', #90, 1000.000000000000000 ) ;
#81 = FACE_OUTER_BOUND ( 'NONE', #50, .T. ) ;
#82 = VERTEX_POINT ( 'NONE', #132 ) ;
#83 = COORDINATED_UNIVERSAL_TIME_OFFSET ( 5, 0, .BEHIND. ) ;
#84 = AXIS2_PLACEMENT_3D ( 'NONE', #300, #145, #13 ) ;
#85 = CARTESIAN_POINT ( 'NONE',  ( -10.80000000000000071, 1.322618543079141493E-15, 0.000000000000000000 ) ) ;
#86 = CIRCLE ( 'NONE', #254, 10.80000000000000071 ) ;
#87 = AXIS2_PLACEMENT_3D ( 'NONE', #304, #219, #98 ) ;
#88 = VECTOR ( 'NONE', #121, 1000.000000000000000 ) ;
#89 = DIRECTION ( 'NONE',  ( 1.000000000000000000, 0.000000000000000000, 0.000000000000000000 ) ) ;
#90 = DIRECTION ( 'NONE',  ( 0.000000000000000000, 0.000000000000000000, 1.000000000000000000 ) ) ;
#91 = EDGE_LOOP ( 'NONE', ( #123, #175, #206, #31 ) ) ;
#92 = COORDINATED_UNIVERSAL_TIME_OFFSET ( 5, 0, .BEHIND. ) ;
#93 = CARTESIAN_POINT ( 'NONE',  ( 12.50000000000000000, 0.000000000000000000, -0.2000000000000000111 ) ) ;
#94 = PERSON ( 'UNSPECIFIED', 'UNSPECIFIED', 'UNSPECIFIED', ('UNSPECIFIED'), ('UNSPECIFIED'), ('UNSPECIFIED') ) ;
#95 = ORIENTED_EDGE ( 'NONE', *, *, #236, .F. ) ;
#96 = CARTESIAN_POINT ( 'NONE',  ( 0.000000000000000000, 0.000000000000000000, 4.500000000000000000 ) ) ;
#97 = DIRECTION ( 'NONE',  ( 1.000000000000000000, 0.000000000000000000, 0.000000000000000000 ) ) ;
#98 = DIRECTION ( 'NONE',  ( 1.000000000000000000, 0.000000000000000000, -0.000000000000000000 ) ) ;
#99 = CYLINDRICAL_SURFACE ( 'NONE', #312, 10.80000000000000071 ) ;
#100 = APPROVAL_DATE_TIME ( #283, #195 ) ;
#101 = DATE_AND_TIME ( #239, #298 ) ;
#102 = AXIS2_PLACEMENT_3D ( 'NONE', #234, #297, #89 ) ;
#103 = VERTEX_POINT ( 'NONE', #173 ) ;
#104 = CIRCLE ( 'NONE', #190, 10.80000000000000071 ) ;
#105 = EDGE_LOOP ( 'NONE', ( #60, #166 ) ) ;
#106 = LOCAL_TIME ( 13, 58, 0.000000000000000000, #163 ) ;
#107 = ADVANCED_FACE ( 'NONE', ( #220, #155 ), #10, .F. ) ;
#108 = EDGE_LOOP ( 'NONE', ( #1, #242 ) ) ;
#109 = ORIENTED_EDGE ( 'NONE', *, *, #117, .T. ) ;
#110 = PRODUCT_RELATED_PRODUCT_CATEGORY ( 'detail', '', ( #45 ) ) ;
#111 = DIRECTION ( 'NONE',  ( 0.000000000000000000, 0.000000000000000000, 1.000000000000000000 ) ) ;
#112 = VERTEX_POINT ( 'NONE', #35 ) ;
#113 = ADVANCED_BREP_SHAPE_REPRESENTATION ( 'Web Model 47680_55848', ( #251, #71 ), #185 ) ;
#114 = DIRECTION ( 'NONE',  ( 1.000000000000000000, 0.000000000000000000, 0.000000000000000000 ) ) ;
#115 = CIRCLE ( 'NONE', #273, 10.80000000000000071 ) ;
#116 = APPROVAL_PERSON_ORGANIZATION ( #311, #174, #158 ) ;
#117 = EDGE_CURVE ( 'NONE', #137, #182, #296, .T. ) ;
#118 = ORIENTED_EDGE ( 'NONE', *, *, #117, .F. ) ;
#119 = CARTESIAN_POINT ( 'NONE',  ( 10.80000000000000071, 0.000000000000000000, 4.500000000000000000 ) ) ;
#120 = CC_DESIGN_DATE_AND_TIME_ASSIGNMENT ( #101, #131, ( #53 ) ) ;
#121 = DIRECTION ( 'NONE',  ( 0.000000000000000000, 0.000000000000000000, 1.000000000000000000 ) ) ;
#122 = DIRECTION ( 'NONE',  ( 1.000000000000000000, 0.000000000000000000, 0.000000000000000000 ) ) ;
#123 = ORIENTED_EDGE ( 'NONE', *, *, #34, .F. ) ;
#124 = DIRECTION ( 'NONE',  ( 0.000000000000000000, 0.000000000000000000, 1.000000000000000000 ) ) ;
#125 = CARTESIAN_POINT ( 'NONE',  ( 0.000000000000000000, 0.000000000000000000, -0.2000000000000000111 ) ) ;
#126 = DIRECTION ( 'NONE',  ( 1.000000000000000000, 0.000000000000000000, 0.000000000000000000 ) ) ;
#127 = ADVANCED_FACE ( 'NONE', ( #76 ), #204, .F. ) ;
#128 = ORIENTED_EDGE ( 'NONE', *, *, #258, .F. ) ;
#129 = DIRECTION ( 'NONE',  ( 1.000000000000000000, 0.000000000000000000, 0.000000000000000000 ) ) ;
#130 = FACE_BOUND ( 'NONE', #105, .T. ) ;
#131 = DATE_TIME_ROLE ( 'classification_date' ) ;
#132 = CARTESIAN_POINT ( 'NONE',  ( -10.80000000000000071, 1.322618543079141493E-15, 3.000000000000000000 ) ) ;
#133 = FACE_OUTER_BOUND ( 'NONE', #91, .T. ) ;
#134 = ORIENTED_EDGE ( 'NONE', *, *, #17, .F. ) ;
#135 = DESIGN_CONTEXT ( 'detailed design', #221, 'design' ) ;
#136 = EDGE_CURVE ( 'NONE', #164, #82, #140, .T. ) ;
#137 = VERTEX_POINT ( 'NONE', #266 ) ;
#138 = FACE_OUTER_BOUND ( 'NONE', #194, .T. ) ;
#139 = AXIS2_PLACEMENT_3D ( 'NONE', #328, #176, #179 ) ;
#140 = CIRCLE ( 'NONE', #327, 10.80000000000000071 ) ;
#141 = ADVANCED_FACE ( 'NONE', ( #133 ), #199, .F. ) ;
#142 = DIRECTION ( 'NONE',  ( 0.000000000000000000, 0.000000000000000000, 1.000000000000000000 ) ) ;
#143 = CARTESIAN_POINT ( 'NONE',  ( 0.000000000000000000, 0.000000000000000000, -0.2000000000000000111 ) ) ;
#144 = ORIENTED_EDGE ( 'NONE', *, *, #285, .T. ) ;
#145 = DIRECTION ( 'NONE',  ( 0.000000000000000000, 0.000000000000000000, 1.000000000000000000 ) ) ;
#146 = FACE_OUTER_BOUND ( 'NONE', #315, .T. ) ;
#147 = AXIS2_PLACEMENT_3D ( 'NONE', #21, #55, #126 ) ;
#148 = DIRECTION ( 'NONE',  ( 0.000000000000000000, 0.000000000000000000, 1.000000000000000000 ) ) ;
#149 = DIRECTION ( 'NONE',  ( 1.000000000000000000, 0.000000000000000000, 0.000000000000000000 ) ) ;
#150 = FACE_OUTER_BOUND ( 'NONE', #235, .T. ) ;
#151 = CARTESIAN_POINT ( 'NONE',  ( 0.000000000000000000, 0.000000000000000000, 0.000000000000000000 ) ) ;
#152 = CARTESIAN_POINT ( 'NONE',  ( 0.000000000000000000, 0.000000000000000000, 4.500000000000000000 ) ) ;
#153 = APPROVAL_DATE_TIME ( #27, #316 ) ;
#154 = DIRECTION ( 'NONE',  ( 1.000000000000000000, 0.000000000000000000, 0.000000000000000000 ) ) ;
#155 = FACE_OUTER_BOUND ( 'NONE', #108, .T. ) ;
#156 = CARTESIAN_POINT ( 'NONE',  ( 0.000000000000000000, 0.000000000000000000, 0.000000000000000000 ) ) ;
#157 = PERSON_AND_ORGANIZATION ( #94, #62 ) ;
#158 = APPROVAL_ROLE ( '' ) ;
#159 = AXIS2_PLACEMENT_3D ( 'NONE', #96, #19, #271 ) ;
#160 = FACE_OUTER_BOUND ( 'NONE', #191, .T. ) ;
#161 =( LENGTH_UNIT ( ) NAMED_UNIT ( * ) SI_UNIT ( .MILLI., .METRE. ) );
#162 = ORIENTED_EDGE ( 'NONE', *, *, #275, .T. ) ;
#163 = COORDINATED_UNIVERSAL_TIME_OFFSET ( 5, 0, .BEHIND. ) ;
#164 = VERTEX_POINT ( 'NONE', #268 ) ;
#165 = CALENDAR_DATE ( 2021, 23, 4 ) ;
#166 = ORIENTED_EDGE ( 'NONE', *, *, #306, .F. ) ;
#167 = CARTESIAN_POINT ( 'NONE',  ( 0.000000000000000000, 0.000000000000000000, 3.000000000000000000 ) ) ;
#168 = EDGE_CURVE ( 'NONE', #112, #42, #263, .T. ) ;
#169 = CALENDAR_DATE ( 2021, 23, 4 ) ;
#170 = CARTESIAN_POINT ( 'NONE',  ( 0.000000000000000000, 0.000000000000000000, 3.000000000000000000 ) ) ;
#171 = APPROVAL_DATE_TIME ( #299, #174 ) ;
#172 = DIRECTION ( 'NONE',  ( 1.000000000000000000, 0.000000000000000000, 0.000000000000000000 ) ) ;
#173 = CARTESIAN_POINT ( 'NONE',  ( 10.80000000000000071, 0.000000000000000000, 0.000000000000000000 ) ) ;
#174 = APPROVAL ( #201, 'UNSPECIFIED' ) ;
#175 = ORIENTED_EDGE ( 'NONE', *, *, #262, .T. ) ;
#176 = DIRECTION ( 'NONE',  ( 0.000000000000000000, 0.000000000000000000, 1.000000000000000000 ) ) ;
#177 = CYLINDRICAL_SURFACE ( 'NONE', #320, 10.80000000000000071 ) ;
#178 = AXIS2_PLACEMENT_3D ( 'NONE', #295, #142, #307 ) ;
#179 = DIRECTION ( 'NONE',  ( 1.000000000000000000, 0.000000000000000000, -0.000000000000000000 ) ) ;
#180 = DIRECTION ( 'NONE',  ( -0.000000000000000000, -0.000000000000000000, -1.000000000000000000 ) ) ;
#181 = PLANE ( 'NONE',  #87 ) ;
#182 = VERTEX_POINT ( 'NONE', #37 ) ;
#183 = MECHANICAL_CONTEXT ( 'NONE', #333, 'mechanical' ) ;
#184 = ORIENTED_EDGE ( 'NONE', *, *, #34, .T. ) ;
#185 =( GEOMETRIC_REPRESENTATION_CONTEXT ( 3 ) GLOBAL_UNCERTAINTY_ASSIGNED_CONTEXT ( ( #3 ) ) GLOBAL_UNIT_ASSIGNED_CONTEXT ( ( #161, #313, #224 ) ) REPRESENTATION_CONTEXT ( 'NONE', 'WORKASPACE' ) );
#186 = PERSON_AND_ORGANIZATION ( #94, #62 ) ;
#187 = VERTEX_POINT ( 'NONE', #119 ) ;
#188 = ORIENTED_EDGE ( 'NONE', *, *, #294, .T. ) ;
#189 = ADVANCED_FACE ( 'NONE', ( #160 ), #278, .T. ) ;
#190 = AXIS2_PLACEMENT_3D ( 'NONE', #151, #18, #51 ) ;
#191 = EDGE_LOOP ( 'NONE', ( #144, #188, #232, #134 ) ) ;
#192 = EDGE_CURVE ( 'NONE', #317, #112, #86, .T. ) ;
#193 = CIRCLE ( 'NONE', #205, 12.50000000000000000 ) ;
#194 = EDGE_LOOP ( 'NONE', ( #214, #109 ) ) ;
#195 = APPROVAL ( #314, 'UNSPECIFIED' ) ;
#196 = DIRECTION ( 'NONE',  ( 0.000000000000000000, 0.000000000000000000, 1.000000000000000000 ) ) ;
#197 = SHAPE_DEFINITION_REPRESENTATION ( #293, #113 ) ;
#198 = CARTESIAN_POINT ( 'NONE',  ( -12.50000000000000000, 1.530808498934191521E-15, -0.2000000000000000111 ) ) ;
#199 = CYLINDRICAL_SURFACE ( 'NONE', #84, 10.80000000000000071 ) ;
#200 = ORIENTED_EDGE ( 'NONE', *, *, #262, .F. ) ;
#201 = APPROVAL_STATUS ( 'not_yet_approved' ) ;
#202 = DIRECTION ( 'NONE',  ( 0.000000000000000000, 0.000000000000000000, 1.000000000000000000 ) ) ;
#203 = CC_DESIGN_PERSON_AND_ORGANIZATION_ASSIGNMENT ( #29, #279, ( #53 ) ) ;
#204 = CYLINDRICAL_SURFACE ( 'NONE', #233, 10.80000000000000071 ) ;
#205 = AXIS2_PLACEMENT_3D ( 'NONE', #329, #49, #247 ) ;
#206 = ORIENTED_EDGE ( 'NONE', *, *, #306, .T. ) ;
#207 = LINE ( 'NONE', #291, #80 ) ;
#208 = EDGE_LOOP ( 'NONE', ( #248, #319, #265, #128 ) ) ;
#209 = CARTESIAN_POINT ( 'NONE',  ( 0.000000000000000000, 0.000000000000000000, 4.500000000000000000 ) ) ;
#210 = CIRCLE ( 'NONE', #40, 10.80000000000000071 ) ;
#211 = DIRECTION ( 'NONE',  ( 0.000000000000000000, 0.000000000000000000, 1.000000000000000000 ) ) ;
#212 = APPROVAL_PERSON_ORGANIZATION ( #230, #195, #75 ) ;
#213 = CC_DESIGN_APPROVAL ( #174, ( #53 ) ) ;
#214 = ORIENTED_EDGE ( 'NONE', *, *, #250, .T. ) ;
#215 = CARTESIAN_POINT ( 'NONE',  ( 0.000000000000000000, 0.000000000000000000, 0.000000000000000000 ) ) ;
#216 = PLANE ( 'NONE',  #139 ) ;
#217 = LINE ( 'NONE', #269, #88 ) ;
#218 = EDGE_CURVE ( 'NONE', #332, #36, #272, .T. ) ;
#219 = DIRECTION ( 'NONE',  ( 0.000000000000000000, 0.000000000000000000, 1.000000000000000000 ) ) ;
#220 = FACE_BOUND ( 'NONE', #4, .T. ) ;
#221 = APPLICATION_CONTEXT ( 'configuration controlled 3d designs of mechanical parts and assemblies' ) ;
#222 = PERSON_AND_ORGANIZATION ( #94, #62 ) ;
#223 = PERSON_AND_ORGANIZATION_ROLE ( 'creator' ) ;
#224 =( NAMED_UNIT ( * ) SI_UNIT ( $, .STERADIAN. ) SOLID_ANGLE_UNIT ( ) );
#225 = APPROVAL_ROLE ( '' ) ;
#226 = LINE ( 'NONE', #93, #28 ) ;
#227 = DIRECTION ( 'NONE',  ( 0.000000000000000000, 0.000000000000000000, 1.000000000000000000 ) ) ;
#228 = LOCAL_TIME ( 13, 58, 0.000000000000000000, #33 ) ;
#229 = COORDINATED_UNIVERSAL_TIME_OFFSET ( 5, 0, .BEHIND. ) ;
#230 = PERSON_AND_ORGANIZATION ( #94, #62 ) ;
#231 = EDGE_CURVE ( 'NONE', #164, #187, #335, .T. ) ;
#232 = ORIENTED_EDGE ( 'NONE', *, *, #250, .F. ) ;
#233 = AXIS2_PLACEMENT_3D ( 'NONE', #7, #39, #237 ) ;
#234 = CARTESIAN_POINT ( 'NONE',  ( 0.000000000000000000, 0.000000000000000000, -0.2000000000000000111 ) ) ;
#235 = EDGE_LOOP ( 'NONE', ( #162, #9 ) ) ;
#236 = EDGE_CURVE ( 'NONE', #317, #103, #207, .T. ) ;
#237 = DIRECTION ( 'NONE',  ( 1.000000000000000000, 0.000000000000000000, 0.000000000000000000 ) ) ;
#238 = DIRECTION ( 'NONE',  ( 1.000000000000000000, 0.000000000000000000, 0.000000000000000000 ) ) ;
#239 = CALENDAR_DATE ( 2021, 23, 4 ) ;
#240 = DIRECTION ( 'NONE',  ( 0.000000000000000000, 0.000000000000000000, 1.000000000000000000 ) ) ;
#241 = DIRECTION ( 'NONE',  ( 1.000000000000000000, 0.000000000000000000, -0.000000000000000000 ) ) ;
#242 = ORIENTED_EDGE ( 'NONE', *, *, #218, .F. ) ;
#243 = CLOSED_SHELL ( 'NONE', ( #141, #189, #127, #14, #267, #107, #301, #292, #249, #284 ) ) ;
#244 = AXIS2_PLACEMENT_3D ( 'NONE', #274, #309, #149 ) ;
#245 = CARTESIAN_POINT ( 'NONE',  ( 10.80000000000000071, 0.000000000000000000, -0.2000000000000000111 ) ) ;
#246 = EDGE_CURVE ( 'NONE', #187, #276, #2, .T. ) ;
#247 = DIRECTION ( 'NONE',  ( 1.000000000000000000, 0.000000000000000000, 0.000000000000000000 ) ) ;
#248 = ORIENTED_EDGE ( 'NONE', *, *, #168, .F. ) ;
#249 = ADVANCED_FACE ( 'NONE', ( #150 ), #216, .F. ) ;
#250 = EDGE_CURVE ( 'NONE', #182, #137, #193, .T. ) ;
#251 = MANIFOLD_SOLID_BREP ( 'Boss-Extrude2', #243 ) ;
#252 = EDGE_LOOP ( 'NONE', ( #257, #58, #282, #95 ) ) ;
#253 = PERSON_AND_ORGANIZATION ( #94, #62 ) ;
#254 = AXIS2_PLACEMENT_3D ( 'NONE', #264, #211, #114 ) ;
#255 = SECURITY_CLASSIFICATION_LEVEL ( 'unclassified' ) ;
#256 = AXIS2_PLACEMENT_3D ( 'NONE', #305, #72, #16 ) ;
#257 = ORIENTED_EDGE ( 'NONE', *, *, #78, .F. ) ;
#258 = EDGE_CURVE ( 'NONE', #42, #103, #115, .T. ) ;
#259 = ORIENTED_EDGE ( 'NONE', *, *, #218, .T. ) ;
#260 = CIRCLE ( 'NONE', #147, 10.80000000000000071 ) ;
#261 = CC_DESIGN_PERSON_AND_ORGANIZATION_ASSIGNMENT ( #253, #277, ( #45 ) ) ;
#262 = EDGE_CURVE ( 'NONE', #82, #276, #66, .T. ) ;
#263 = LINE ( 'NONE', #70, #73 ) ;
#264 = CARTESIAN_POINT ( 'NONE',  ( 0.000000000000000000, 0.000000000000000000, -0.2000000000000000111 ) ) ;
#265 = ORIENTED_EDGE ( 'NONE', *, *, #236, .T. ) ;
#266 = CARTESIAN_POINT ( 'NONE',  ( -12.50000000000000000, 1.530808498934191521E-15, 4.500000000000000000 ) ) ;
#267 = ADVANCED_FACE ( 'NONE', ( #56 ), #318, .T. ) ;
#268 = CARTESIAN_POINT ( 'NONE',  ( 10.80000000000000071, 0.000000000000000000, 3.000000000000000000 ) ) ;
#269 = CARTESIAN_POINT ( 'NONE',  ( -12.50000000000000000, 1.530808498934191521E-15, -0.2000000000000000111 ) ) ;
#270 = CC_DESIGN_PERSON_AND_ORGANIZATION_ASSIGNMENT ( #157, #77, ( #32 ) ) ;
#271 = DIRECTION ( 'NONE',  ( 1.000000000000000000, 0.000000000000000000, -0.000000000000000000 ) ) ;
#272 = CIRCLE ( 'NONE', #178, 12.50000000000000000 ) ;
#273 = AXIS2_PLACEMENT_3D ( 'NONE', #215, #180, #97 ) ;
#274 = CARTESIAN_POINT ( 'NONE',  ( 0.000000000000000000, 0.000000000000000000, -0.2000000000000000111 ) ) ;
#275 = EDGE_CURVE ( 'NONE', #103, #42, #104, .T. ) ;
#276 = VERTEX_POINT ( 'NONE', #74 ) ;
#277 = PERSON_AND_ORGANIZATION_ROLE ( 'design_owner' ) ;
#278 = CYLINDRICAL_SURFACE ( 'NONE', #102, 12.50000000000000000 ) ;
#279 = PERSON_AND_ORGANIZATION_ROLE ( 'classification_officer' ) ;
#280 = DIRECTION ( 'NONE',  ( 1.000000000000000000, 0.000000000000000000, 0.000000000000000000 ) ) ;
#281 = LOCAL_TIME ( 13, 58, 0.000000000000000000, #229 ) ;
#282 = ORIENTED_EDGE ( 'NONE', *, *, #275, .F. ) ;
#283 = DATE_AND_TIME ( #169, #12 ) ;
#284 = ADVANCED_FACE ( 'NONE', ( #146 ), #181, .T. ) ;
#285 = EDGE_CURVE ( 'NONE', #36, #332, #5, .T. ) ;
#286 = CC_DESIGN_SECURITY_CLASSIFICATION ( #53, ( #32 ) ) ;
#287 = ORIENTED_EDGE ( 'NONE', *, *, #136, .T. ) ;
#288 = VECTOR ( 'NONE', #124, 1000.000000000000000 ) ;
#289 = CARTESIAN_POINT ( 'NONE',  ( 0.000000000000000000, 0.000000000000000000, -0.2000000000000000111 ) ) ;
#290 = CC_DESIGN_PERSON_AND_ORGANIZATION_ASSIGNMENT ( #222, #52, ( #32 ) ) ;
#291 = CARTESIAN_POINT ( 'NONE',  ( 10.80000000000000071, 0.000000000000000000, -0.2000000000000000111 ) ) ;
#292 = ADVANCED_FACE ( 'NONE', ( #138, #130 ), #330, .T. ) ;
#293 = PRODUCT_DEFINITION_SHAPE ( 'NONE', 'NONE',  #334 ) ;
#294 = EDGE_CURVE ( 'NONE', #332, #137, #217, .T. ) ;
#295 = CARTESIAN_POINT ( 'NONE',  ( 0.000000000000000000, 0.000000000000000000, -0.2000000000000000111 ) ) ;
#296 = CIRCLE ( 'NONE', #23, 12.50000000000000000 ) ;
#297 = DIRECTION ( 'NONE',  ( 0.000000000000000000, 0.000000000000000000, 1.000000000000000000 ) ) ;
#298 = LOCAL_TIME ( 13, 58, 0.000000000000000000, #92 ) ;
#299 = DATE_AND_TIME ( #6, #281 ) ;
#300 = CARTESIAN_POINT ( 'NONE',  ( 0.000000000000000000, 0.000000000000000000, -0.2000000000000000111 ) ) ;
#301 = ADVANCED_FACE ( 'NONE', ( #81 ), #177, .F. ) ;
#302 = ORIENTED_EDGE ( 'NONE', *, *, #231, .T. ) ;
#303 = CC_DESIGN_DATE_AND_TIME_ASSIGNMENT ( #310, #79, ( #334 ) ) ;
#304 = CARTESIAN_POINT ( 'NONE',  ( 0.000000000000000000, 0.000000000000000000, 3.000000000000000000 ) ) ;
#305 = CARTESIAN_POINT ( 'NONE',  ( 0.000000000000000000, 0.000000000000000000, -0.2000000000000000111 ) ) ;
#306 = EDGE_CURVE ( 'NONE', #276, #187, #260, .T. ) ;
#307 = DIRECTION ( 'NONE',  ( 1.000000000000000000, 0.000000000000000000, 0.000000000000000000 ) ) ;
#308 = CIRCLE ( 'NONE', #325, 10.80000000000000071 ) ;
#309 = DIRECTION ( 'NONE',  ( 0.000000000000000000, 0.000000000000000000, 1.000000000000000000 ) ) ;
#310 = DATE_AND_TIME ( #38, #106 ) ;
#311 = PERSON_AND_ORGANIZATION ( #94, #62 ) ;
#312 = AXIS2_PLACEMENT_3D ( 'NONE', #289, #227, #280 ) ;
#313 =( NAMED_UNIT ( * ) PLANE_ANGLE_UNIT ( ) SI_UNIT ( $, .RADIAN. ) );
#314 = APPROVAL_STATUS ( 'not_yet_approved' ) ;
#315 = EDGE_LOOP ( 'NONE', ( #287, #184 ) ) ;
#316 = APPROVAL ( #25, 'UNSPECIFIED' ) ;
#317 = VERTEX_POINT ( 'NONE', #245 ) ;
#318 = CYLINDRICAL_SURFACE ( 'NONE', #244, 12.50000000000000000 ) ;
#319 = ORIENTED_EDGE ( 'NONE', *, *, #192, .F. ) ;
#320 = AXIS2_PLACEMENT_3D ( 'NONE', #125, #326, #122 ) ;
#321 = ORIENTED_EDGE ( 'NONE', *, *, #294, .F. ) ;
#322 = CARTESIAN_POINT ( 'NONE',  ( 0.000000000000000000, 0.000000000000000000, -0.2000000000000000111 ) ) ;
#323 = EDGE_LOOP ( 'NONE', ( #321, #259, #11, #118 ) ) ;
#324 = DIRECTION ( 'NONE',  ( 0.000000000000000000, 0.000000000000000000, 1.000000000000000000 ) ) ;
#325 = AXIS2_PLACEMENT_3D ( 'NONE', #143, #324, #67 ) ;
#326 = DIRECTION ( 'NONE',  ( 0.000000000000000000, 0.000000000000000000, 1.000000000000000000 ) ) ;
#327 = AXIS2_PLACEMENT_3D ( 'NONE', #167, #68, #8 ) ;
#328 = CARTESIAN_POINT ( 'NONE',  ( 0.000000000000000000, 0.000000000000000000, 0.000000000000000000 ) ) ;
#329 = CARTESIAN_POINT ( 'NONE',  ( 0.000000000000000000, 0.000000000000000000, 4.500000000000000000 ) ) ;
#330 = PLANE ( 'NONE',  #159 ) ;
#331 = APPLICATION_PROTOCOL_DEFINITION ( 'international standard', 'config_control_design', 1994, #333 ) ;
#332 = VERTEX_POINT ( 'NONE', #198 ) ;
#333 = APPLICATION_CONTEXT ( 'configuration controlled 3d designs of mechanical parts and assemblies' ) ;
#334 = PRODUCT_DEFINITION ( 'UNKNOWN', '', #32, #135 ) ;
#335 = LINE ( 'NONE', #65, #64 ) ;
ENDSEC;
END-ISO-10303-21;
