ISO-10303-21;
HEADER;
FILE_DESCRIPTION (( 'STEP AP203' ),
    '1' );
FILE_NAME ('Web Model 15424_15792.step',
    '2020-11-03T22:07:50',
    ( '' ),
    ( '' ),
    'SwSTEP 2.0',
    'SolidWorks 2018',
    '' );
FILE_SCHEMA (( 'CONFIG_CONTROL_DESIGN' ));
ENDSEC;

DATA;
#1 = VERTEX_POINT ( 'NONE', #153 ) ;
#2 = PERSON_AND_ORGANIZATION ( #27, #28 ) ;
#3 = AXIS2_PLACEMENT_3D ( 'NONE', #98, #31, #90 ) ;
#4 = UNCERTAINTY_MEASURE_WITH_UNIT (LENGTH_MEASURE( 1.000000000000000082E-05 ), #57, 'distance_accuracy_value', 'NONE');
#5 = ORIENTED_EDGE ( 'NONE', *, *, #134, .T. ) ;
#6 = CARTESIAN_POINT ( 'NONE',  ( -12.69999999999999929, 0.0000000000000000000, -1.000000000000000000 ) ) ;
#7 = DIRECTION ( 'NONE',  ( 0.0000000000000000000, 0.0000000000000000000, 1.000000000000000000 ) ) ;
#8 = CC_DESIGN_SECURITY_CLASSIFICATION ( #155, ( #73 ) ) ;
#9 = CARTESIAN_POINT ( 'NONE',  ( -12.69999999999999929, 0.0000000000000000000, 1.000000000000000000 ) ) ;
#10 = EDGE_LOOP ( 'NONE', ( #17, #148 ) ) ;
#11 = DIRECTION ( 'NONE',  ( 0.0000000000000000000, 0.0000000000000000000, 1.000000000000000000 ) ) ;
#12 = COORDINATED_UNIVERSAL_TIME_OFFSET ( 5, 0, .BEHIND. ) ;
#13 = APPLICATION_PROTOCOL_DEFINITION ( 'international standard', 'config_control_design', 1994, #91 ) ;
#14 = APPLICATION_CONTEXT ( 'configuration controlled 3d designs of mechanical parts and assemblies' ) ;
#15 = APPROVAL_ROLE ( '' ) ;
#16 = APPROVAL_PERSON_ORGANIZATION ( #93, #115, #15 ) ;
#17 = ORIENTED_EDGE ( 'NONE', *, *, #122, .F. ) ;
#18 = ORIENTED_EDGE ( 'NONE', *, *, #119, .T. ) ;
#19 = CARTESIAN_POINT ( 'NONE',  ( 12.69999999999999929, 1.555301434917138433E-15, 1.000000000000000000 ) ) ;
#20 = ORIENTED_EDGE ( 'NONE', *, *, #119, .F. ) ;
#21 = APPROVAL ( #171, 'UNSPECIFIED' ) ;
#22 = MECHANICAL_CONTEXT ( 'NONE', #91, 'mechanical' ) ;
#23 = PERSON_AND_ORGANIZATION_ROLE ( 'design_supplier' ) ;
#24 = APPROVAL_STATUS ( 'not_yet_approved' ) ;
#25 =( NAMED_UNIT ( * ) PLANE_ANGLE_UNIT ( ) SI_UNIT ( $, .RADIAN. ) );
#26 = CC_DESIGN_PERSON_AND_ORGANIZATION_ASSIGNMENT ( #65, #128, ( #114 ) ) ;
#27 = PERSON ( 'UNSPECIFIED', 'UNSPECIFIED', 'UNSPECIFIED', ('UNSPECIFIED'), ('UNSPECIFIED'), ('UNSPECIFIED') ) ;
#28 = ORGANIZATION ( 'UNSPECIFIED', 'UNSPECIFIED', '' ) ;
#29 = COORDINATED_UNIVERSAL_TIME_OFFSET ( 5, 0, .BEHIND. ) ;
#30 = FACE_OUTER_BOUND ( 'NONE', #157, .T. ) ;
#31 = DIRECTION ( 'NONE',  ( 0.0000000000000000000, 0.0000000000000000000, 1.000000000000000000 ) ) ;
#32 = APPROVAL_DATE_TIME ( #118, #21 ) ;
#33 = ADVANCED_FACE ( 'NONE', ( #46 ), #141, .F. ) ;
#34 = DIRECTION ( 'NONE',  ( -1.000000000000000000, 0.0000000000000000000, 0.0000000000000000000 ) ) ;
#35 = FACE_OUTER_BOUND ( 'NONE', #72, .T. ) ;
#36 = PERSON_AND_ORGANIZATION ( #27, #28 ) ;
#37 = APPROVAL_STATUS ( 'not_yet_approved' ) ;
#38 = DATE_AND_TIME ( #97, #152 ) ;
#39 = AXIS2_PLACEMENT_3D ( 'NONE', #156, #166, #34 ) ;
#40 = AXIS2_PLACEMENT_3D ( 'NONE', #109, #51, #154 ) ;
#41 = VECTOR ( 'NONE', #42, 1000.000000000000000 ) ;
#42 = DIRECTION ( 'NONE',  ( -0.0000000000000000000, -0.0000000000000000000, -1.000000000000000000 ) ) ;
#43 = VECTOR ( 'NONE', #138, 1000.000000000000000 ) ;
#44 = LOCAL_TIME ( 17, 7, 50.00000000000000000, #175 ) ;
#45 = AXIS2_PLACEMENT_3D ( 'NONE', #167, #7, #95 ) ;
#46 = FACE_OUTER_BOUND ( 'NONE', #10, .T. ) ;
#47 = ORIENTED_EDGE ( 'NONE', *, *, #64, .T. ) ;
#48 = CC_DESIGN_APPROVAL ( #115, ( #135 ) ) ;
#49 = LOCAL_TIME ( 17, 7, 50.00000000000000000, #12 ) ;
#50 = CARTESIAN_POINT ( 'NONE',  ( 12.69999999999999929, 1.555301434917138433E-15, -1.000000000000000000 ) ) ;
#51 = DIRECTION ( 'NONE',  ( 0.0000000000000000000, 0.0000000000000000000, 1.000000000000000000 ) ) ;
#52 = CARTESIAN_POINT ( 'NONE',  ( -12.69999999999999929, 0.0000000000000000000, 1.000000000000000000 ) ) ;
#53 = APPROVAL_PERSON_ORGANIZATION ( #36, #21, #102 ) ;
#54 = CARTESIAN_POINT ( 'NONE',  ( 0.0000000000000000000, 0.0000000000000000000, 1.000000000000000000 ) ) ;
#55 = SHAPE_DEFINITION_REPRESENTATION ( #62, #120 ) ;
#56 = AXIS2_PLACEMENT_3D ( 'NONE', #54, #85, #83 ) ;
#57 =( LENGTH_UNIT ( ) NAMED_UNIT ( * ) SI_UNIT ( .MILLI., .METRE. ) );
#58 = AXIS2_PLACEMENT_3D ( 'NONE', #68, #11, #110 ) ;
#59 = PERSON_AND_ORGANIZATION_ROLE ( 'classification_officer' ) ;
#60 = PERSON_AND_ORGANIZATION ( #27, #28 ) ;
#61 = CC_DESIGN_PERSON_AND_ORGANIZATION_ASSIGNMENT ( #104, #174, ( #135 ) ) ;
#62 = PRODUCT_DEFINITION_SHAPE ( 'NONE', 'NONE',  #135 ) ;
#63 = PERSON_AND_ORGANIZATION ( #27, #28 ) ;
#64 = EDGE_CURVE ( 'NONE', #116, #105, #79, .T. ) ;
#65 = PERSON_AND_ORGANIZATION ( #27, #28 ) ;
#66 = CYLINDRICAL_SURFACE ( 'NONE', #56, 12.69999999999999929 ) ;
#67 = DATE_AND_TIME ( #161, #49 ) ;
#68 = CARTESIAN_POINT ( 'NONE',  ( 0.0000000000000000000, 0.0000000000000000000, -1.000000000000000000 ) ) ;
#69 = DIRECTION ( 'NONE',  ( 1.000000000000000000, 0.0000000000000000000, 0.0000000000000000000 ) ) ;
#70 = DESIGN_CONTEXT ( 'detailed design', #14, 'design' ) ;
#71 = DIRECTION ( 'NONE',  ( 1.000000000000000000, 0.0000000000000000000, 0.0000000000000000000 ) ) ;
#72 = EDGE_LOOP ( 'NONE', ( #5, #150 ) ) ;
#73 = PRODUCT_DEFINITION_FORMATION_WITH_SPECIFIED_SOURCE ( 'ANY', '', #114, .NOT_KNOWN. ) ;
#74 = CIRCLE ( 'NONE', #137, 12.69999999999999929 ) ;
#75 = DIRECTION ( 'NONE',  ( 0.0000000000000000000, 0.0000000000000000000, 1.000000000000000000 ) ) ;
#76 = DIRECTION ( 'NONE',  ( 1.000000000000000000, 0.0000000000000000000, 0.0000000000000000000 ) ) ;
#77 = APPROVAL ( #37, 'UNSPECIFIED' ) ;
#78 = VERTEX_POINT ( 'NONE', #50 ) ;
#79 = LINE ( 'NONE', #52, #43 ) ;
#80 = APPROVAL_PERSON_ORGANIZATION ( #63, #77, #146 ) ;
#81 = CC_DESIGN_APPROVAL ( #21, ( #73 ) ) ;
#82 = FACE_OUTER_BOUND ( 'NONE', #84, .T. ) ;
#83 = DIRECTION ( 'NONE',  ( -1.000000000000000000, 0.0000000000000000000, 0.0000000000000000000 ) ) ;
#84 = EDGE_LOOP ( 'NONE', ( #20, #108, #47, #103 ) ) ;
#85 = DIRECTION ( 'NONE',  ( -0.0000000000000000000, -0.0000000000000000000, -1.000000000000000000 ) ) ;
#86 = EDGE_CURVE ( 'NONE', #78, #105, #74, .T. ) ;
#87 = CARTESIAN_POINT ( 'NONE',  ( 0.0000000000000000000, 0.0000000000000000000, 1.000000000000000000 ) ) ;
#88 = CIRCLE ( 'NONE', #132, 12.69999999999999929 ) ;
#89 = COORDINATED_UNIVERSAL_TIME_OFFSET ( 5, 0, .BEHIND. ) ;
#90 = DIRECTION ( 'NONE',  ( 1.000000000000000000, 0.0000000000000000000, 0.0000000000000000000 ) ) ;
#91 = APPLICATION_CONTEXT ( 'configuration controlled 3d designs of mechanical parts and assemblies' ) ;
#92 = CC_DESIGN_PERSON_AND_ORGANIZATION_ASSIGNMENT ( #2, #59, ( #155 ) ) ;
#93 = PERSON_AND_ORGANIZATION ( #27, #28 ) ;
#94 = COORDINATED_UNIVERSAL_TIME_OFFSET ( 5, 0, .BEHIND. ) ;
#95 = DIRECTION ( 'NONE',  ( 1.000000000000000000, 0.0000000000000000000, 0.0000000000000000000 ) ) ;
#96 = CALENDAR_DATE ( 2020, 3, 11 ) ;
#97 = CALENDAR_DATE ( 2020, 3, 11 ) ;
#98 = CARTESIAN_POINT ( 'NONE',  ( 0.0000000000000000000, 0.0000000000000000000, 0.0000000000000000000 ) ) ;
#99 = SECURITY_CLASSIFICATION_LEVEL ( 'unclassified' ) ;
#100 = PRODUCT_RELATED_PRODUCT_CATEGORY ( 'detail', '', ( #114 ) ) ;
#101 = PERSON_AND_ORGANIZATION_ROLE ( 'creator' ) ;
#102 = APPROVAL_ROLE ( '' ) ;
#103 = ORIENTED_EDGE ( 'NONE', *, *, #122, .T. ) ;
#104 = PERSON_AND_ORGANIZATION ( #27, #28 ) ;
#105 = VERTEX_POINT ( 'NONE', #6 ) ;
#106 = MANIFOLD_SOLID_BREP ( 'Boss-Extrude1', #123 ) ;
#107 = ORIENTED_EDGE ( 'NONE', *, *, #130, .F. ) ;
#108 = ORIENTED_EDGE ( 'NONE', *, *, #134, .F. ) ;
#109 = CARTESIAN_POINT ( 'NONE',  ( 0.0000000000000000000, 0.0000000000000000000, 1.000000000000000000 ) ) ;
#110 = DIRECTION ( 'NONE',  ( 1.000000000000000000, 0.0000000000000000000, -0.0000000000000000000 ) ) ;
#111 = ADVANCED_FACE ( 'NONE', ( #82 ), #147, .T. ) ;
#112 = DATE_AND_TIME ( #96, #44 ) ;
#113 = DATE_TIME_ROLE ( 'classification_date' ) ;
#114 = PRODUCT ( 'Web Model 15424_15792', 'Web Model 15424_15792', '', ( #22 ) ) ;
#115 = APPROVAL ( #24, 'UNSPECIFIED' ) ;
#116 = VERTEX_POINT ( 'NONE', #9 ) ;
#117 = PERSON_AND_ORGANIZATION ( #27, #28 ) ;
#118 = DATE_AND_TIME ( #124, #164 ) ;
#119 = EDGE_CURVE ( 'NONE', #1, #78, #163, .T. ) ;
#120 = ADVANCED_BREP_SHAPE_REPRESENTATION ( 'Web Model 15424_15792', ( #106, #3 ), #169 ) ;
#121 = ADVANCED_FACE ( 'NONE', ( #30 ), #66, .T. ) ;
#122 = EDGE_CURVE ( 'NONE', #105, #78, #144, .T. ) ;
#123 = CLOSED_SHELL ( 'NONE', ( #121, #111, #126, #33 ) ) ;
#124 = CALENDAR_DATE ( 2020, 3, 11 ) ;
#125 = CC_DESIGN_PERSON_AND_ORGANIZATION_ASSIGNMENT ( #117, #23, ( #73 ) ) ;
#126 = ADVANCED_FACE ( 'NONE', ( #35 ), #170, .T. ) ;
#127 = DIRECTION ( 'NONE',  ( 0.0000000000000000000, 0.0000000000000000000, 1.000000000000000000 ) ) ;
#128 = PERSON_AND_ORGANIZATION_ROLE ( 'design_owner' ) ;
#129 = CC_DESIGN_APPROVAL ( #77, ( #155 ) ) ;
#130 = EDGE_CURVE ( 'NONE', #1, #116, #133, .T. ) ;
#131 = LOCAL_TIME ( 17, 7, 50.00000000000000000, #29 ) ;
#132 = AXIS2_PLACEMENT_3D ( 'NONE', #87, #75, #76 ) ;
#133 = CIRCLE ( 'NONE', #45, 12.69999999999999929 ) ;
#134 = EDGE_CURVE ( 'NONE', #116, #1, #88, .T. ) ;
#135 = PRODUCT_DEFINITION ( 'UNKNOWN', '', #73, #70 ) ;
#136 = ORIENTED_EDGE ( 'NONE', *, *, #86, .T. ) ;
#137 = AXIS2_PLACEMENT_3D ( 'NONE', #143, #127, #69 ) ;
#138 = DIRECTION ( 'NONE',  ( -0.0000000000000000000, -0.0000000000000000000, -1.000000000000000000 ) ) ;
#139 = AXIS2_PLACEMENT_3D ( 'NONE', #158, #140, #71 ) ;
#140 = DIRECTION ( 'NONE',  ( 0.0000000000000000000, 0.0000000000000000000, 1.000000000000000000 ) ) ;
#141 = PLANE ( 'NONE',  #58 ) ;
#142 = CC_DESIGN_DATE_AND_TIME_ASSIGNMENT ( #165, #113, ( #155 ) ) ;
#143 = CARTESIAN_POINT ( 'NONE',  ( 0.0000000000000000000, 0.0000000000000000000, -1.000000000000000000 ) ) ;
#144 = CIRCLE ( 'NONE', #139, 12.69999999999999929 ) ;
#145 = APPROVAL_DATE_TIME ( #112, #115 ) ;
#146 = APPROVAL_ROLE ( '' ) ;
#147 = CYLINDRICAL_SURFACE ( 'NONE', #39, 12.69999999999999929 ) ;
#148 = ORIENTED_EDGE ( 'NONE', *, *, #86, .F. ) ;
#149 = CC_DESIGN_DATE_AND_TIME_ASSIGNMENT ( #67, #173, ( #135 ) ) ;
#150 = ORIENTED_EDGE ( 'NONE', *, *, #130, .T. ) ;
#151 = CALENDAR_DATE ( 2020, 3, 11 ) ;
#152 = LOCAL_TIME ( 17, 7, 50.00000000000000000, #94 ) ;
#153 = CARTESIAN_POINT ( 'NONE',  ( 12.69999999999999929, 1.555301434917138433E-15, 1.000000000000000000 ) ) ;
#154 = DIRECTION ( 'NONE',  ( 1.000000000000000000, 0.0000000000000000000, -0.0000000000000000000 ) ) ;
#155 = SECURITY_CLASSIFICATION ( '', '', #99 ) ;
#156 = CARTESIAN_POINT ( 'NONE',  ( 0.0000000000000000000, 0.0000000000000000000, 1.000000000000000000 ) ) ;
#157 = EDGE_LOOP ( 'NONE', ( #107, #18, #136, #162 ) ) ;
#158 = CARTESIAN_POINT ( 'NONE',  ( 0.0000000000000000000, 0.0000000000000000000, -1.000000000000000000 ) ) ;
#159 = CC_DESIGN_PERSON_AND_ORGANIZATION_ASSIGNMENT ( #60, #101, ( #73 ) ) ;
#160 = APPLICATION_PROTOCOL_DEFINITION ( 'international standard', 'config_control_design', 1994, #14 ) ;
#161 = CALENDAR_DATE ( 2020, 3, 11 ) ;
#162 = ORIENTED_EDGE ( 'NONE', *, *, #64, .F. ) ;
#163 = LINE ( 'NONE', #19, #41 ) ;
#164 = LOCAL_TIME ( 17, 7, 50.00000000000000000, #89 ) ;
#165 = DATE_AND_TIME ( #151, #131 ) ;
#166 = DIRECTION ( 'NONE',  ( -0.0000000000000000000, -0.0000000000000000000, -1.000000000000000000 ) ) ;
#167 = CARTESIAN_POINT ( 'NONE',  ( 0.0000000000000000000, 0.0000000000000000000, 1.000000000000000000 ) ) ;
#168 = APPROVAL_DATE_TIME ( #38, #77 ) ;
#169 =( GEOMETRIC_REPRESENTATION_CONTEXT ( 3 ) GLOBAL_UNCERTAINTY_ASSIGNED_CONTEXT ( ( #4 ) ) GLOBAL_UNIT_ASSIGNED_CONTEXT ( ( #57, #25, #172 ) ) REPRESENTATION_CONTEXT ( 'NONE', 'WORKASPACE' ) );
#170 = PLANE ( 'NONE',  #40 ) ;
#171 = APPROVAL_STATUS ( 'not_yet_approved' ) ;
#172 =( NAMED_UNIT ( * ) SI_UNIT ( $, .STERADIAN. ) SOLID_ANGLE_UNIT ( ) );
#173 = DATE_TIME_ROLE ( 'creation_date' ) ;
#174 = PERSON_AND_ORGANIZATION_ROLE ( 'creator' ) ;
#175 = COORDINATED_UNIVERSAL_TIME_OFFSET ( 5, 0, .BEHIND. ) ;
ENDSEC;
END-ISO-10303-21;
