ISO-10303-21;
HEADER;
FILE_DESCRIPTION (( 'STEP AP214' ),
    '1' );
FILE_NAME ('4593-E0W.STEP',
    '2009-12-21T17:11:54',
    ( ' ' ),
    ( ' ' ),
    'SwSTEP 2.0',
    'SolidWorks 2009',
    '' );
FILE_SCHEMA (( 'AUTOMOTIVE_DESIGN' ));
ENDSEC;

DATA;
#1 = ORIENTED_EDGE ( 'NONE', *, *, #13, .F. ) ;
#2 = ORIENTED_EDGE ( 'NONE', *, *, #44, .T. ) ;
#3 = EDGE_LOOP ( 'NONE', ( #1, #5 ) ) ;
#4 = ORIENTED_EDGE ( 'NONE', *, *, #50, .F. ) ;
#5 = ORIENTED_EDGE ( 'NONE', *, *, #32, .F. ) ;
#6 = ORIENTED_EDGE ( 'NONE', *, *, #39, .F. ) ;
#7 = CLOSED_SHELL ( 'NONE', ( #25, #30, #46, #10, #8 ) ) ;
#8 = ADVANCED_FACE ( 'NONE', ( #53 ), #77, .F. ) ;
#9 = ORIENTED_EDGE ( 'NONE', *, *, #14, .T. ) ;
#10 = ADVANCED_FACE ( 'NONE', ( #64 ), #120, .T. ) ;
#11 = ORIENTED_EDGE ( 'NONE', *, *, #13, .T. ) ;
#12 = VERTEX_POINT ( 'NONE', #89 ) ;
#13 = EDGE_CURVE ( 'NONE', #48, #12, #114, .T. ) ;
#14 = EDGE_CURVE ( 'NONE', #18, #49, #95, .T. ) ;
#15 = ORIENTED_EDGE ( 'NONE', *, *, #35, .T. ) ;
#16 = ORIENTED_EDGE ( 'NONE', *, *, #28, .T. ) ;
#17 = EDGE_LOOP ( 'NONE', ( #24, #31, #2, #4, #6 ) ) ;
#18 = VERTEX_POINT ( 'NONE', #96 ) ;
#19 = VERTEX_POINT ( 'NONE', #135 ) ;
#20 = ORIENTED_EDGE ( 'NONE', *, *, #44, .F. ) ;
#21 = ORIENTED_EDGE ( 'NONE', *, *, #34, .F. ) ;
#22 = MANIFOLD_SOLID_BREP ( 'NONE', #7 ) ;
#23 = ORIENTED_EDGE ( 'NONE', *, *, #34, .T. ) ;
#24 = ORIENTED_EDGE ( 'NONE', *, *, #38, .F. ) ;
#25 = ADVANCED_FACE ( 'NONE', ( #104 ), #163, .T. ) ;
#26 = ORIENTED_EDGE ( 'NONE', *, *, #38, .T. ) ;
#27 = VERTEX_POINT ( 'NONE', #156 ) ;
#28 = EDGE_CURVE ( 'NONE', #18, #19, #171, .T. ) ;
#29 = EDGE_LOOP ( 'NONE', ( #11, #26, #40, #36, #20 ) ) ;
#30 = ADVANCED_FACE ( 'NONE', ( #170 ), #147, .T. ) ;
#31 = ORIENTED_EDGE ( 'NONE', *, *, #32, .T. ) ;
#32 = EDGE_CURVE ( 'NONE', #12, #48, #178, .T. ) ;
#33 = ORIENTED_EDGE ( 'NONE', *, *, #39, .T. ) ;
#34 = EDGE_CURVE ( 'NONE', #27, #19, #168, .T. ) ;
#35 = EDGE_CURVE ( 'NONE', #41, #18, #155, .T. ) ;
#36 = ORIENTED_EDGE ( 'NONE', *, *, #35, .F. ) ;
#37 = ORIENTED_EDGE ( 'NONE', *, *, #28, .F. ) ;
#38 = EDGE_CURVE ( 'NONE', #12, #49, #197, .T. ) ;
#39 = EDGE_CURVE ( 'NONE', #49, #27, #209, .T. ) ;
#40 = ORIENTED_EDGE ( 'NONE', *, *, #14, .F. ) ;
#41 = VERTEX_POINT ( 'NONE', #210 ) ;
#42 = EDGE_LOOP ( 'NONE', ( #9, #33, #23, #37 ) ) ;
#43 = ORIENTED_EDGE ( 'NONE', *, *, #50, .T. ) ;
#44 = EDGE_CURVE ( 'NONE', #48, #41, #187, .T. ) ;
#45 = EDGE_LOOP ( 'NONE', ( #21, #43, #15, #16 ) ) ;
#46 = ADVANCED_FACE ( 'NONE', ( #203 ), #241, .T. ) ;
#47 = DIRECTION ( 'NONE',  ( -0.0000000000000000000, -0.0000000000000000000, 1.000000000000000000 ) ) ;
#48 = VERTEX_POINT ( 'NONE', #226 ) ;
#49 = VERTEX_POINT ( 'NONE', #219 ) ;
#50 = EDGE_CURVE ( 'NONE', #27, #41, #214, .T. ) ;
#51 = PRESENTATION_LAYER_ASSIGNMENT (  '', '', ( #67 ) ) ;
#52 = COLOUR_RGB ( '',0.9568627450980391500, 0.9490196078431372100, 0.9607843137254902200 ) ;
#53 = FACE_OUTER_BOUND ( 'NONE', #3, .T. ) ;
#54 =( NAMED_UNIT ( * ) PLANE_ANGLE_UNIT ( ) SI_UNIT ( $, .RADIAN. ) );
#55 = SURFACE_STYLE_USAGE ( .BOTH. , #81 ) ;
#56 = MECHANICAL_DESIGN_GEOMETRIC_PRESENTATION_REPRESENTATION (  '', ( #80 ), #59 ) ;
#57 = FILL_AREA_STYLE_COLOUR ( '', #52 ) ;
#58 = PRESENTATION_LAYER_ASSIGNMENT (  '', '', ( #80 ) ) ;
#59 =( GEOMETRIC_REPRESENTATION_CONTEXT ( 3 ) GLOBAL_UNCERTAINTY_ASSIGNED_CONTEXT ( ( #62 ) ) GLOBAL_UNIT_ASSIGNED_CONTEXT ( ( #60, #61, #78 ) ) REPRESENTATION_CONTEXT ( 'NONE', 'WORKASPACE' ) );
#60 =( LENGTH_UNIT ( ) NAMED_UNIT ( * ) SI_UNIT ( .MILLI., .METRE. ) );
#61 =( NAMED_UNIT ( * ) PLANE_ANGLE_UNIT ( ) SI_UNIT ( $, .RADIAN. ) );
#62 = UNCERTAINTY_MEASURE_WITH_UNIT (LENGTH_MEASURE( 1.000000000000000100E-005 ), #60, 'distance_accuracy_value', 'NONE');
#63 = COLOUR_RGB ( '',0.9568627450980391500, 0.9490196078431372100, 0.9607843137254902200 ) ;
#64 = FACE_OUTER_BOUND ( 'NONE', #17, .T. ) ;
#65 = DIRECTION ( 'NONE',  ( 0.0000000000000000000, -0.0000000000000000000, 1.000000000000000000 ) ) ;
#66 = CARTESIAN_POINT ( 'NONE',  ( 0.0000000000000000000, 4.041334437186265000E-016, -1.100000000000000100 ) ) ;
#67 = STYLED_ITEM ( 'NONE', ( #68 ), #10 ) ;
#68 = PRESENTATION_STYLE_ASSIGNMENT (( #69 ) ) ;
#69 = SURFACE_STYLE_USAGE ( .BOTH. , #70 ) ;
#70 = SURFACE_SIDE_STYLE ('',( #71 ) ) ;
#71 = SURFACE_STYLE_FILL_AREA ( #72 ) ;
#72 = FILL_AREA_STYLE ('',( #73 ) ) ;
#73 = FILL_AREA_STYLE_COLOUR ( '', #63 ) ;
#74 = DIRECTION ( 'NONE',  ( 1.000000000000000000, 0.0000000000000000000, 0.0000000000000000000 ) ) ;
#75 = SURFACE_STYLE_FILL_AREA ( #79 ) ;
#76 = PRESENTATION_STYLE_ASSIGNMENT (( #55 ) ) ;
#77 = PLANE ( 'NONE',  #82 ) ;
#78 =( NAMED_UNIT ( * ) SI_UNIT ( $, .STERADIAN. ) SOLID_ANGLE_UNIT ( ) );
#79 = FILL_AREA_STYLE ('',( #57 ) ) ;
#80 = STYLED_ITEM ( 'NONE', ( #76 ), #8 ) ;
#81 = SURFACE_SIDE_STYLE ('',( #75 ) ) ;
#82 = AXIS2_PLACEMENT_3D ( 'NONE', #66, #65, #74 ) ;
#83 = UNCERTAINTY_MEASURE_WITH_UNIT (LENGTH_MEASURE( 1.000000000000000100E-005 ), #84, 'distance_accuracy_value', 'NONE');
#84 =( LENGTH_UNIT ( ) NAMED_UNIT ( * ) SI_UNIT ( .MILLI., .METRE. ) );
#85 =( NAMED_UNIT ( * ) SI_UNIT ( $, .STERADIAN. ) SOLID_ANGLE_UNIT ( ) );
#86 = MECHANICAL_DESIGN_GEOMETRIC_PRESENTATION_REPRESENTATION (  '', ( #67 ), #87 ) ;
#87 =( GEOMETRIC_REPRESENTATION_CONTEXT ( 3 ) GLOBAL_UNCERTAINTY_ASSIGNED_CONTEXT ( ( #83 ) ) GLOBAL_UNIT_ASSIGNED_CONTEXT ( ( #84, #88, #85 ) ) REPRESENTATION_CONTEXT ( 'NONE', 'WORKASPACE' ) );
#88 =( NAMED_UNIT ( * ) PLANE_ANGLE_UNIT ( ) SI_UNIT ( $, .RADIAN. ) );
#89 = CARTESIAN_POINT ( 'NONE',  ( -12.69999999999999900, 1.555250069354419100E-015, -1.100000000000000300 ) ) ;
#90 = UNCERTAINTY_MEASURE_WITH_UNIT (LENGTH_MEASURE( 1.000000000000000100E-005 ), #134, 'distance_accuracy_value', 'NONE');
#91 = CARTESIAN_POINT ( 'NONE',  ( 0.0000000000000000000, 0.0000000000000000000, 0.8911863488637100600 ) ) ;
#92 = COLOUR_RGB ( '',0.7960784313725489700, 0.8235294117647058400, 0.9372549019607843100 ) ;
#93 = SURFACE_SIDE_STYLE ('',( #94 ) ) ;
#94 = SURFACE_STYLE_FILL_AREA ( #101 ) ;
#95 = CIRCLE ( 'NONE', #97, 12.69999999999999900 ) ;
#96 = CARTESIAN_POINT ( 'NONE',  ( 0.0000000000000000000, 12.70000000000016600, 0.8911863488637069600 ) ) ;
#97 = AXIS2_PLACEMENT_3D ( 'NONE', #91, #105, #106 ) ;
#98 = DIRECTION ( 'NONE',  ( -0.0000000000000000000, -0.0000000000000000000, 1.000000000000000000 ) ) ;
#99 = CARTESIAN_POINT ( 'NONE',  ( 0.0000000000000000000, 0.0000000000000000000, 4.308132045400366600 ) ) ;
#100 =( NAMED_UNIT ( * ) PLANE_ANGLE_UNIT ( ) SI_UNIT ( $, .RADIAN. ) );
#101 = FILL_AREA_STYLE ('',( #102 ) ) ;
#102 = FILL_AREA_STYLE_COLOUR ( '', #92 ) ;
#103 = COLOUR_RGB ( '',0.9568627450980391500, 0.9490196078431372100, 0.9607843137254902200 ) ;
#104 = FACE_OUTER_BOUND ( 'NONE', #29, .T. ) ;
#105 = DIRECTION ( 'NONE',  ( -0.0000000000000000000, -0.0000000000000000000, 1.000000000000000000 ) ) ;
#106 = DIRECTION ( 'NONE',  ( 1.000000000000000000, 0.0000000000000000000, 0.0000000000000000000 ) ) ;
#107 = PRESENTATION_STYLE_ASSIGNMENT (( #108 ) ) ;
#108 = SURFACE_STYLE_USAGE ( .BOTH. , #109 ) ;
#109 = SURFACE_SIDE_STYLE ('',( #125 ) ) ;
#110 = AXIS2_PLACEMENT_3D ( 'NONE', #133, #129, #124 ) ;
#111 = UNCERTAINTY_MEASURE_WITH_UNIT (LENGTH_MEASURE( 1.000000000000000100E-005 ), #119, 'distance_accuracy_value', 'NONE');
#112 = PRESENTATION_STYLE_ASSIGNMENT (( #113 ) ) ;
#113 = SURFACE_STYLE_USAGE ( .BOTH. , #93 ) ;
#114 = CIRCLE ( 'NONE', #110, 12.69999999999999900 ) ;
#115 = MECHANICAL_DESIGN_GEOMETRIC_PRESENTATION_REPRESENTATION (  '', ( #137 ), #132 ) ;
#116 = PRESENTATION_LAYER_ASSIGNMENT (  '', '', ( #117 ) ) ;
#117 = STYLED_ITEM ( 'NONE', ( #112 ), #22 ) ;
#118 = AXIS2_PLACEMENT_3D ( 'NONE', #99, #98, #128 ) ;
#119 =( LENGTH_UNIT ( ) NAMED_UNIT ( * ) SI_UNIT ( .MILLI., .METRE. ) );
#120 = CYLINDRICAL_SURFACE ( 'NONE', #118, 12.69999999999999900 ) ;
#121 =( NAMED_UNIT ( * ) SI_UNIT ( $, .STERADIAN. ) SOLID_ANGLE_UNIT ( ) );
#122 =( GEOMETRIC_REPRESENTATION_CONTEXT ( 3 ) GLOBAL_UNCERTAINTY_ASSIGNED_CONTEXT ( ( #90 ) ) GLOBAL_UNIT_ASSIGNED_CONTEXT ( ( #134, #100, #130 ) ) REPRESENTATION_CONTEXT ( 'NONE', 'WORKASPACE' ) );
#123 =( NAMED_UNIT ( * ) PLANE_ANGLE_UNIT ( ) SI_UNIT ( $, .RADIAN. ) );
#124 = DIRECTION ( 'NONE',  ( 1.000000000000000000, 0.0000000000000000000, 0.0000000000000000000 ) ) ;
#125 = SURFACE_STYLE_FILL_AREA ( #126 ) ;
#126 = FILL_AREA_STYLE ('',( #127 ) ) ;
#127 = FILL_AREA_STYLE_COLOUR ( '', #103 ) ;
#128 = DIRECTION ( 'NONE',  ( 1.000000000000000000, 0.0000000000000000000, 0.0000000000000000000 ) ) ;
#129 = DIRECTION ( 'NONE',  ( -0.0000000000000000000, -0.0000000000000000000, 1.000000000000000000 ) ) ;
#130 =( NAMED_UNIT ( * ) SI_UNIT ( $, .STERADIAN. ) SOLID_ANGLE_UNIT ( ) );
#131 = MECHANICAL_DESIGN_GEOMETRIC_PRESENTATION_REPRESENTATION (  '', ( #117 ), #122 ) ;
#132 =( GEOMETRIC_REPRESENTATION_CONTEXT ( 3 ) GLOBAL_UNCERTAINTY_ASSIGNED_CONTEXT ( ( #111 ) ) GLOBAL_UNIT_ASSIGNED_CONTEXT ( ( #119, #123, #121 ) ) REPRESENTATION_CONTEXT ( 'NONE', 'WORKASPACE' ) );
#133 = CARTESIAN_POINT ( 'NONE',  ( 0.0000000000000000000, 0.0000000000000000000, -1.100000000000000300 ) ) ;
#134 =( LENGTH_UNIT ( ) NAMED_UNIT ( * ) SI_UNIT ( .MILLI., .METRE. ) );
#135 = CARTESIAN_POINT ( 'NONE',  ( 0.0000000000000000000, 2.365388402725612600E-014, 1.099999999999989900 ) ) ;
#136 = PRESENTATION_LAYER_ASSIGNMENT (  '', '', ( #137 ) ) ;
#137 = STYLED_ITEM ( 'NONE', ( #107 ), #25 ) ;
#138 = DIRECTION ( 'NONE',  ( -0.0000000000000000000, -0.0000000000000000000, 1.000000000000000000 ) ) ;
#139 = PRESENTATION_STYLE_ASSIGNMENT (( #140 ) ) ;
#140 = SURFACE_STYLE_USAGE ( .BOTH. , #149 ) ;
#141 = FILL_AREA_STYLE ('',( #179 ) ) ;
#142 = DIRECTION ( 'NONE',  ( 0.0000000000000000000, 1.000000000000000000, 0.0000000000000000000 ) ) ;
#143 = DIRECTION ( 'NONE',  ( -1.000000000000000000, 0.0000000000000000000, 0.0000000000000000000 ) ) ;
#144 = SURFACE_STYLE_FILL_AREA ( #141 ) ;
#145 = DIRECTION ( 'NONE',  ( 1.000000000000000000, 0.0000000000000000000, 0.0000000000000000000 ) ) ;
#146 = AXIS2_PLACEMENT_3D ( 'NONE', #161, #153, #180 ) ;
#147 = SPHERICAL_SURFACE ( 'NONE', #160, 386.3100000000000000 ) ;
#148 =( GEOMETRIC_REPRESENTATION_CONTEXT ( 3 ) GLOBAL_UNCERTAINTY_ASSIGNED_CONTEXT ( ( #174 ) ) GLOBAL_UNIT_ASSIGNED_CONTEXT ( ( #181, #166, #175 ) ) REPRESENTATION_CONTEXT ( 'NONE', 'WORKASPACE' ) );
#149 = SURFACE_SIDE_STYLE ('',( #144 ) ) ;
#150 = DIRECTION ( 'NONE',  ( -1.224606353822377300E-016, -1.000000000000000000, 0.0000000000000000000 ) ) ;
#151 = DIRECTION ( 'NONE',  ( -1.000000000000000000, 1.224606353822377300E-016, 0.0000000000000000000 ) ) ;
#152 = AXIS2_PLACEMENT_3D ( 'NONE', #167, #151, #150 ) ;
#153 = DIRECTION ( 'NONE',  ( 1.000000000000000000, 0.0000000000000000000, 0.0000000000000000000 ) ) ;
#154 = AXIS2_PLACEMENT_3D ( 'NONE', #169, #47, #191 ) ;
#155 = CIRCLE ( 'NONE', #154, 12.69999999999999900 ) ;
#156 = CARTESIAN_POINT ( 'NONE',  ( -1.555250069354439400E-015, -12.70000000000016600, 0.8911863488637069600 ) ) ;
#157 = CARTESIAN_POINT ( 'NONE',  ( 0.0000000000000000000, 0.0000000000000000000, 4.308132045400366600 ) ) ;
#158 = AXIS2_PLACEMENT_3D ( 'NONE', #157, #138, #145 ) ;
#159 = CARTESIAN_POINT ( 'NONE',  ( 0.0000000000000000000, 0.0000000000000000000, -385.2099999999999800 ) ) ;
#160 = AXIS2_PLACEMENT_3D ( 'NONE', #159, #143, #142 ) ;
#161 = CARTESIAN_POINT ( 'NONE',  ( 0.0000000000000000000, 0.0000000000000000000, -385.2099999999999800 ) ) ;
#162 = STYLED_ITEM ( 'NONE', ( #139 ), #30 ) ;
#163 = CYLINDRICAL_SURFACE ( 'NONE', #158, 12.69999999999999900 ) ;
#164 = DIRECTION ( 'NONE',  ( 1.000000000000000000, 0.0000000000000000000, 0.0000000000000000000 ) ) ;
#165 = DIRECTION ( 'NONE',  ( -0.0000000000000000000, -0.0000000000000000000, 1.000000000000000000 ) ) ;
#166 =( NAMED_UNIT ( * ) PLANE_ANGLE_UNIT ( ) SI_UNIT ( $, .RADIAN. ) );
#167 = CARTESIAN_POINT ( 'NONE',  ( 0.0000000000000000000, 0.0000000000000000000, -385.2099999999999800 ) ) ;
#168 = CIRCLE ( 'NONE', #152, 386.3100000000000000 ) ;
#169 = CARTESIAN_POINT ( 'NONE',  ( 0.0000000000000000000, 0.0000000000000000000, 0.8911863488637100600 ) ) ;
#170 = FACE_OUTER_BOUND ( 'NONE', #42, .T. ) ;
#171 = CIRCLE ( 'NONE', #146, 386.3100000000000000 ) ;
#172 = MECHANICAL_DESIGN_GEOMETRIC_PRESENTATION_REPRESENTATION (  '', ( #162 ), #148 ) ;
#173 = PRESENTATION_LAYER_ASSIGNMENT (  '', '', ( #162 ) ) ;
#174 = UNCERTAINTY_MEASURE_WITH_UNIT (LENGTH_MEASURE( 1.000000000000000100E-005 ), #181, 'distance_accuracy_value', 'NONE');
#175 =( NAMED_UNIT ( * ) SI_UNIT ( $, .STERADIAN. ) SOLID_ANGLE_UNIT ( ) );
#176 = CARTESIAN_POINT ( 'NONE',  ( 0.0000000000000000000, 0.0000000000000000000, -1.100000000000000300 ) ) ;
#177 = AXIS2_PLACEMENT_3D ( 'NONE', #176, #165, #164 ) ;
#178 = CIRCLE ( 'NONE', #177, 12.69999999999999900 ) ;
#179 = FILL_AREA_STYLE_COLOUR ( '', #182 ) ;
#180 = DIRECTION ( 'NONE',  ( 0.0000000000000000000, 0.0000000000000000000, -1.000000000000000000 ) ) ;
#181 =( LENGTH_UNIT ( ) NAMED_UNIT ( * ) SI_UNIT ( .MILLI., .METRE. ) );
#182 = COLOUR_RGB ( '',0.9568627450980391500, 0.9490196078431372100, 0.9607843137254902200 ) ;
#183 = UNCERTAINTY_MEASURE_WITH_UNIT (LENGTH_MEASURE( 1.000000000000000100E-005 ), #206, 'distance_accuracy_value', 'NONE');
#184 =( NAMED_UNIT ( * ) SI_UNIT ( $, .STERADIAN. ) SOLID_ANGLE_UNIT ( ) );
#185 = CARTESIAN_POINT ( 'NONE',  ( -12.69999999999999900, 1.555250069354419100E-015, 4.308132045400366600 ) ) ;
#186 = CARTESIAN_POINT ( 'NONE',  ( 12.69999999999999900, 0.0000000000000000000, 4.308132045400366600 ) ) ;
#187 = LINE ( 'NONE', #186, #194 ) ;
#188 = SURFACE_STYLE_FILL_AREA ( #189 ) ;
#189 = FILL_AREA_STYLE ('',( #201 ) ) ;
#190 =( NAMED_UNIT ( * ) PLANE_ANGLE_UNIT ( ) SI_UNIT ( $, .RADIAN. ) );
#191 = DIRECTION ( 'NONE',  ( 1.000000000000000000, 0.0000000000000000000, 0.0000000000000000000 ) ) ;
#192 = CARTESIAN_POINT ( 'NONE',  ( 0.0000000000000000000, 0.0000000000000000000, 0.8911863488637100600 ) ) ;
#193 = DIRECTION ( 'NONE',  ( -0.0000000000000000000, -0.0000000000000000000, 1.000000000000000000 ) ) ;
#194 = VECTOR ( 'NONE', #193, 1000.000000000000000 ) ;
#195 = DIRECTION ( 'NONE',  ( 1.000000000000000000, 0.0000000000000000000, 0.0000000000000000000 ) ) ;
#196 = DIRECTION ( 'NONE',  ( -0.0000000000000000000, -0.0000000000000000000, 1.000000000000000000 ) ) ;
#197 = LINE ( 'NONE', #185, #198 ) ;
#198 = VECTOR ( 'NONE', #204, 1000.000000000000000 ) ;
#199 = PRESENTATION_LAYER_ASSIGNMENT (  '', '', ( #200 ) ) ;
#200 = STYLED_ITEM ( 'NONE', ( #211 ), #46 ) ;
#201 = FILL_AREA_STYLE_COLOUR ( '', #202 ) ;
#202 = COLOUR_RGB ( '',0.9568627450980391500, 0.9490196078431372100, 0.9607843137254902200 ) ;
#203 = FACE_OUTER_BOUND ( 'NONE', #45, .T. ) ;
#204 = DIRECTION ( 'NONE',  ( -0.0000000000000000000, -0.0000000000000000000, 1.000000000000000000 ) ) ;
#205 =( GEOMETRIC_REPRESENTATION_CONTEXT ( 3 ) GLOBAL_UNCERTAINTY_ASSIGNED_CONTEXT ( ( #183 ) ) GLOBAL_UNIT_ASSIGNED_CONTEXT ( ( #206, #190, #184 ) ) REPRESENTATION_CONTEXT ( 'NONE', 'WORKASPACE' ) );
#206 =( LENGTH_UNIT ( ) NAMED_UNIT ( * ) SI_UNIT ( .MILLI., .METRE. ) );
#207 = AXIS2_PLACEMENT_3D ( 'NONE', #192, #196, #195 ) ;
#208 = MECHANICAL_DESIGN_GEOMETRIC_PRESENTATION_REPRESENTATION (  '', ( #200 ), #205 ) ;
#209 = CIRCLE ( 'NONE', #207, 12.69999999999999900 ) ;
#210 = CARTESIAN_POINT ( 'NONE',  ( 12.69999999999999900, 0.0000000000000000000, 0.8911863488637100600 ) ) ;
#211 = PRESENTATION_STYLE_ASSIGNMENT (( #212 ) ) ;
#212 = SURFACE_STYLE_USAGE ( .BOTH. , #213 ) ;
#213 = SURFACE_SIDE_STYLE ('',( #188 ) ) ;
#214 = CIRCLE ( 'NONE', #239, 12.69999999999999900 ) ;
#215 = DIRECTION ( 'NONE',  ( 1.000000000000000000, 0.0000000000000000000, 0.0000000000000000000 ) ) ;
#216 = DIRECTION ( 'NONE',  ( -0.0000000000000000000, -0.0000000000000000000, 1.000000000000000000 ) ) ;
#217 = CARTESIAN_POINT ( 'NONE',  ( 0.0000000000000000000, 0.0000000000000000000, 0.8911863488637100600 ) ) ;
#218 =( NAMED_UNIT ( * ) PLANE_ANGLE_UNIT ( ) SI_UNIT ( $, .RADIAN. ) );
#219 = CARTESIAN_POINT ( 'NONE',  ( -12.69999999999999900, 1.555250069354419100E-015, 0.8911863488637100600 ) ) ;
#220 =( NAMED_UNIT ( * ) SI_UNIT ( $, .STERADIAN. ) SOLID_ANGLE_UNIT ( ) );
#221 = PRESENTATION_STYLE_ASSIGNMENT (( #222 ) ) ;
#222 = SURFACE_STYLE_USAGE ( .BOTH. , #223 ) ;
#223 = SURFACE_SIDE_STYLE ('',( #224 ) ) ;
#224 = SURFACE_STYLE_FILL_AREA ( #231 ) ;
#225 = UNCERTAINTY_MEASURE_WITH_UNIT (LENGTH_MEASURE( 1.000000000000000100E-005 ), #240, 'distance_accuracy_value', 'NONE');
#226 = CARTESIAN_POINT ( 'NONE',  ( 12.69999999999999900, 0.0000000000000000000, -1.100000000000000300 ) ) ;
#227 = DIRECTION ( 'NONE',  ( -1.000000000000000000, 0.0000000000000000000, 0.0000000000000000000 ) ) ;
#228 =( LENGTH_UNIT ( ) NAMED_UNIT ( * ) SI_UNIT ( .MILLI., .METRE. ) );
#229 = ADVANCED_BREP_SHAPE_REPRESENTATION ( '4593-E0W', ( #22, #243 ), #230 ) ;
#230 =( GEOMETRIC_REPRESENTATION_CONTEXT ( 3 ) GLOBAL_UNCERTAINTY_ASSIGNED_CONTEXT ( ( #225 ) ) GLOBAL_UNIT_ASSIGNED_CONTEXT ( ( #240, #218, #220 ) ) REPRESENTATION_CONTEXT ( 'NONE', 'WORKASPACE' ) );
#231 = FILL_AREA_STYLE ('',( #232 ) ) ;
#232 = FILL_AREA_STYLE_COLOUR ( '', #233 ) ;
#233 = COLOUR_RGB ( '',0.7960784313725489700, 0.8235294117647058400, 0.9372549019607843100 ) ;
#234 = AXIS2_PLACEMENT_3D ( 'NONE', #235, #227, #242 ) ;
#235 = CARTESIAN_POINT ( 'NONE',  ( 0.0000000000000000000, 0.0000000000000000000, -385.2099999999999800 ) ) ;
#236 = MECHANICAL_DESIGN_GEOMETRIC_PRESENTATION_REPRESENTATION (  '', ( #238 ), #248 ) ;
#237 = PRESENTATION_LAYER_ASSIGNMENT (  '', '', ( #238 ) ) ;
#238 = STYLED_ITEM ( 'NONE', ( #221 ), #229 ) ;
#239 = AXIS2_PLACEMENT_3D ( 'NONE', #217, #216, #215 ) ;
#240 =( LENGTH_UNIT ( ) NAMED_UNIT ( * ) SI_UNIT ( .MILLI., .METRE. ) );
#241 = SPHERICAL_SURFACE ( 'NONE', #234, 386.3100000000000000 ) ;
#242 = DIRECTION ( 'NONE',  ( 0.0000000000000000000, 1.000000000000000000, 0.0000000000000000000 ) ) ;
#243 = AXIS2_PLACEMENT_3D ( 'NONE', #245, #249, #244 ) ;
#244 = DIRECTION ( 'NONE',  ( 1.000000000000000000, 0.0000000000000000000, 0.0000000000000000000 ) ) ;
#245 = CARTESIAN_POINT ( 'NONE',  ( 0.0000000000000000000, 0.0000000000000000000, 0.0000000000000000000 ) ) ;
#246 = APPLICATION_CONTEXT ( 'automotive_design' ) ;
#247 =( NAMED_UNIT ( * ) SI_UNIT ( $, .STERADIAN. ) SOLID_ANGLE_UNIT ( ) );
#248 =( GEOMETRIC_REPRESENTATION_CONTEXT ( 3 ) GLOBAL_UNCERTAINTY_ASSIGNED_CONTEXT ( ( #250 ) ) GLOBAL_UNIT_ASSIGNED_CONTEXT ( ( #228, #54, #247 ) ) REPRESENTATION_CONTEXT ( 'NONE', 'WORKASPACE' ) );
#249 = DIRECTION ( 'NONE',  ( 0.0000000000000000000, 0.0000000000000000000, 1.000000000000000000 ) ) ;
#250 = UNCERTAINTY_MEASURE_WITH_UNIT (LENGTH_MEASURE( 1.000000000000000100E-005 ), #228, 'distance_accuracy_value', 'NONE');
#251 = APPLICATION_PROTOCOL_DEFINITION ( 'draft international standard', 'automotive_design', 1998, #246 ) ;
#252 = APPLICATION_PROTOCOL_DEFINITION ( 'draft international standard', 'automotive_design', 1998, #257 ) ;
#253 = PRODUCT_RELATED_PRODUCT_CATEGORY ( 'part', '', ( #256 ) ) ;
#254 = PRODUCT_DEFINITION ( 'UNKNOWN', '', #258, #255 ) ;
#255 = PRODUCT_DEFINITION_CONTEXT ( 'detailed design', #257, 'design' ) ;
#256 = PRODUCT ( '4593-E0W', '4593-E0W', '', ( #259 ) ) ;
#257 = APPLICATION_CONTEXT ( 'automotive_design' ) ;
#258 = PRODUCT_DEFINITION_FORMATION_WITH_SPECIFIED_SOURCE ( 'ANY', '', #256, .NOT_KNOWN. ) ;
#259 = PRODUCT_CONTEXT ( 'NONE', #246, 'mechanical' ) ;
#260 = PRODUCT_DEFINITION_SHAPE ( 'NONE', 'NONE',  #254 ) ;
#261 = SHAPE_DEFINITION_REPRESENTATION ( #260, #229 ) ;
ENDSEC;
END-ISO-10303-21;
