ISO-10303-21;
HEADER;
FILE_DESCRIPTION (( 'STEP AP203' ),
    '1' );
FILE_NAME ('Web Model 45463_45463.step',
    '2019-01-07T15:39:35',
    ( '' ),
    ( '' ),
    'SwSTEP 2.0',
    'SolidWorks 2016',
    '' );
FILE_SCHEMA (( 'CONFIG_CONTROL_DESIGN' ));
ENDSEC;

DATA;
#1 = UNCERTAINTY_MEASURE_WITH_UNIT (LENGTH_MEASURE( 1.000000000000000100E-005 ), #97, 'distance_accuracy_value', 'NONE');
#2 = ORIENTED_EDGE ( 'NONE', *, *, #33, .F. ) ;
#3 = CALENDAR_DATE ( 2019, 7, 1 ) ;
#4 = DATE_TIME_ROLE ( 'creation_date' ) ;
#5 = CALENDAR_DATE ( 2019, 7, 1 ) ;
#6 = EDGE_CURVE ( 'NONE', #25, #59, #68, .T. ) ;
#7 = LOCAL_TIME ( 10, 39, 35.00000000000000000, #130 ) ;
#8 = CC_DESIGN_PERSON_AND_ORGANIZATION_ASSIGNMENT ( #79, #111, ( #143 ) ) ;
#9 = APPROVAL_DATE_TIME ( #167, #78 ) ;
#10 = VERTEX_POINT ( 'NONE', #119 ) ;
#11 = COORDINATED_UNIVERSAL_TIME_OFFSET ( 5, 0, .BEHIND. ) ;
#12 = VECTOR ( 'NONE', #136, 1000.000000000000000 ) ;
#13 = CC_DESIGN_DATE_AND_TIME_ASSIGNMENT ( #76, #4, ( #143 ) ) ;
#14 = DIRECTION ( 'NONE',  ( 0.0000000000000000000, 0.0000000000000000000, 1.000000000000000000 ) ) ;
#15 = EDGE_CURVE ( 'NONE', #59, #10, #146, .T. ) ;
#16 = MECHANICAL_CONTEXT ( 'NONE', #70, 'mechanical' ) ;
#17 = DIRECTION ( 'NONE',  ( 0.0000000000000000000, 0.0000000000000000000, 1.000000000000000000 ) ) ;
#18 = PRODUCT ( 'Web Model 45463_45463', 'Web Model 45463_45463', '', ( #16 ) ) ;
#19 = CIRCLE ( 'NONE', #43, 2.499999999999999600 ) ;
#20 = CARTESIAN_POINT ( 'NONE',  ( 2.499999999999999600, 3.061616997868382600E-016, -0.5000000000000000000 ) ) ;
#21 = EDGE_LOOP ( 'NONE', ( #129, #2 ) ) ;
#22 = DIRECTION ( 'NONE',  ( -1.000000000000000000, 0.0000000000000000000, 0.0000000000000000000 ) ) ;
#23 = CARTESIAN_POINT ( 'NONE',  ( 2.499999999999999600, 3.061616997868382600E-016, 0.5000000000000000000 ) ) ;
#24 = EDGE_CURVE ( 'NONE', #59, #25, #61, .T. ) ;
#25 = VERTEX_POINT ( 'NONE', #23 ) ;
#26 = CC_DESIGN_PERSON_AND_ORGANIZATION_ASSIGNMENT ( #51, #152, ( #174 ) ) ;
#27 = APPROVAL ( #142, 'UNSPECIFIED' ) ;
#28 = PERSON_AND_ORGANIZATION ( #82, #98 ) ;
#29 = APPLICATION_PROTOCOL_DEFINITION ( 'international standard', 'config_control_design', 1994, #113 ) ;
#30 = ORIENTED_EDGE ( 'NONE', *, *, #24, .F. ) ;
#31 = APPROVAL_STATUS ( 'not_yet_approved' ) ;
#32 = PERSON_AND_ORGANIZATION ( #82, #98 ) ;
#33 = EDGE_CURVE ( 'NONE', #88, #10, #19, .T. ) ;
#34 = CC_DESIGN_PERSON_AND_ORGANIZATION_ASSIGNMENT ( #28, #110, ( #18 ) ) ;
#35 = AXIS2_PLACEMENT_3D ( 'NONE', #67, #156, #158 ) ;
#36 = DIRECTION ( 'NONE',  ( 1.000000000000000000, 0.0000000000000000000, 0.0000000000000000000 ) ) ;
#37 = EDGE_LOOP ( 'NONE', ( #94, #49 ) ) ;
#38 = DIRECTION ( 'NONE',  ( -0.0000000000000000000, -0.0000000000000000000, -1.000000000000000000 ) ) ;
#39 = PERSON_AND_ORGANIZATION ( #82, #98 ) ;
#40 = PERSON_AND_ORGANIZATION ( #82, #98 ) ;
#41 = DIRECTION ( 'NONE',  ( -0.0000000000000000000, -0.0000000000000000000, -1.000000000000000000 ) ) ;
#42 = AXIS2_PLACEMENT_3D ( 'NONE', #172, #161, #121 ) ;
#43 = AXIS2_PLACEMENT_3D ( 'NONE', #116, #90, #36 ) ;
#44 = DATE_TIME_ROLE ( 'classification_date' ) ;
#45 = AXIS2_PLACEMENT_3D ( 'NONE', #171, #89, #103 ) ;
#46 = DIRECTION ( 'NONE',  ( 1.000000000000000000, 0.0000000000000000000, 0.0000000000000000000 ) ) ;
#47 = CALENDAR_DATE ( 2019, 7, 1 ) ;
#48 = PERSON_AND_ORGANIZATION_ROLE ( 'design_supplier' ) ;
#49 = ORIENTED_EDGE ( 'NONE', *, *, #6, .T. ) ;
#50 = CLOSED_SHELL ( 'NONE', ( #52, #154, #168, #101 ) ) ;
#51 = PERSON_AND_ORGANIZATION ( #82, #98 ) ;
#52 = ADVANCED_FACE ( 'NONE', ( #107 ), #128, .T. ) ;
#53 = CARTESIAN_POINT ( 'NONE',  ( -2.499999999999999600, 0.0000000000000000000, 0.5000000000000000000 ) ) ;
#54 = LOCAL_TIME ( 10, 39, 35.00000000000000000, #93 ) ;
#55 = AXIS2_PLACEMENT_3D ( 'NONE', #160, #123, #92 ) ;
#56 = FACE_OUTER_BOUND ( 'NONE', #37, .T. ) ;
#57 = CARTESIAN_POINT ( 'NONE',  ( 0.0000000000000000000, 0.0000000000000000000, 0.0000000000000000000 ) ) ;
#58 = APPROVAL_STATUS ( 'not_yet_approved' ) ;
#59 = VERTEX_POINT ( 'NONE', #53 ) ;
#60 = PERSON_AND_ORGANIZATION_ROLE ( 'creator' ) ;
#61 = CIRCLE ( 'NONE', #35, 2.499999999999999600 ) ;
#62 = ORIENTED_EDGE ( 'NONE', *, *, #33, .T. ) ;
#63 = COORDINATED_UNIVERSAL_TIME_OFFSET ( 5, 0, .BEHIND. ) ;
#64 = AXIS2_PLACEMENT_3D ( 'NONE', #134, #38, #22 ) ;
#65 = LINE ( 'NONE', #145, #72 ) ;
#66 = CC_DESIGN_APPROVAL ( #148, ( #143 ) ) ;
#67 = CARTESIAN_POINT ( 'NONE',  ( 0.0000000000000000000, 0.0000000000000000000, 0.5000000000000000000 ) ) ;
#68 = CIRCLE ( 'NONE', #45, 2.499999999999999600 ) ;
#69 = LOCAL_TIME ( 10, 39, 35.00000000000000000, #163 ) ;
#70 = APPLICATION_CONTEXT ( 'configuration controlled 3d designs of mechanical parts and assemblies' ) ;
#71 = ORIENTED_EDGE ( 'NONE', *, *, #95, .F. ) ;
#72 = VECTOR ( 'NONE', #118, 1000.000000000000000 ) ;
#73 =( NAMED_UNIT ( * ) PLANE_ANGLE_UNIT ( ) SI_UNIT ( $, .RADIAN. ) );
#74 = PRODUCT_RELATED_PRODUCT_CATEGORY ( 'detail', '', ( #18 ) ) ;
#75 = FACE_OUTER_BOUND ( 'NONE', #122, .T. ) ;
#76 = DATE_AND_TIME ( #173, #115 ) ;
#77 = CARTESIAN_POINT ( 'NONE',  ( -2.499999999999999600, 0.0000000000000000000, 0.5000000000000000000 ) ) ;
#78 = APPROVAL ( #58, 'UNSPECIFIED' ) ;
#79 = PERSON_AND_ORGANIZATION ( #82, #98 ) ;
#80 = EDGE_LOOP ( 'NONE', ( #126, #150, #62, #159 ) ) ;
#81 = APPROVAL_PERSON_ORGANIZATION ( #109, #78, #127 ) ;
#82 = PERSON ( 'UNSPECIFIED', 'UNSPECIFIED', 'UNSPECIFIED', ('UNSPECIFIED'), ('UNSPECIFIED'), ('UNSPECIFIED') ) ;
#83 = MANIFOLD_SOLID_BREP ( 'Boss-Extrude1', #50 ) ;
#84 = APPLICATION_PROTOCOL_DEFINITION ( 'international standard', 'config_control_design', 1994, #70 ) ;
#85 = FACE_OUTER_BOUND ( 'NONE', #21, .T. ) ;
#86 = AXIS2_PLACEMENT_3D ( 'NONE', #106, #41, #140 ) ;
#87 = DATE_AND_TIME ( #108, #170 ) ;
#88 = VERTEX_POINT ( 'NONE', #20 ) ;
#89 = DIRECTION ( 'NONE',  ( 0.0000000000000000000, 0.0000000000000000000, 1.000000000000000000 ) ) ;
#90 = DIRECTION ( 'NONE',  ( 0.0000000000000000000, 0.0000000000000000000, 1.000000000000000000 ) ) ;
#91 = DATE_AND_TIME ( #47, #54 ) ;
#92 = DIRECTION ( 'NONE',  ( 1.000000000000000000, 0.0000000000000000000, 0.0000000000000000000 ) ) ;
#93 = COORDINATED_UNIVERSAL_TIME_OFFSET ( 5, 0, .BEHIND. ) ;
#94 = ORIENTED_EDGE ( 'NONE', *, *, #24, .T. ) ;
#95 = EDGE_CURVE ( 'NONE', #25, #88, #65, .T. ) ;
#96 = PLANE ( 'NONE',  #105 ) ;
#97 =( LENGTH_UNIT ( ) NAMED_UNIT ( * ) SI_UNIT ( .MILLI., .METRE. ) );
#98 = ORGANIZATION ( 'UNSPECIFIED', 'UNSPECIFIED', '' ) ;
#99 = ORIENTED_EDGE ( 'NONE', *, *, #15, .T. ) ;
#100 = APPROVAL_DATE_TIME ( #112, #27 ) ;
#101 = ADVANCED_FACE ( 'NONE', ( #85 ), #135, .F. ) ;
#102 = DESIGN_CONTEXT ( 'detailed design', #113, 'design' ) ;
#103 = DIRECTION ( 'NONE',  ( 1.000000000000000000, 0.0000000000000000000, 0.0000000000000000000 ) ) ;
#104 = EDGE_CURVE ( 'NONE', #10, #88, #175, .T. ) ;
#105 = AXIS2_PLACEMENT_3D ( 'NONE', #124, #14, #153 ) ;
#106 = CARTESIAN_POINT ( 'NONE',  ( 0.0000000000000000000, 0.0000000000000000000, 0.5000000000000000000 ) ) ;
#107 = FACE_OUTER_BOUND ( 'NONE', #80, .T. ) ;
#108 = CALENDAR_DATE ( 2019, 7, 1 ) ;
#109 = PERSON_AND_ORGANIZATION ( #82, #98 ) ;
#110 = PERSON_AND_ORGANIZATION_ROLE ( 'design_owner' ) ;
#111 = PERSON_AND_ORGANIZATION_ROLE ( 'creator' ) ;
#112 = DATE_AND_TIME ( #5, #7 ) ;
#113 = APPLICATION_CONTEXT ( 'configuration controlled 3d designs of mechanical parts and assemblies' ) ;
#114 = ADVANCED_BREP_SHAPE_REPRESENTATION ( 'Web Model 45463_45463', ( #83, #137 ), #139 ) ;
#115 = LOCAL_TIME ( 10, 39, 35.00000000000000000, #11 ) ;
#116 = CARTESIAN_POINT ( 'NONE',  ( 0.0000000000000000000, 0.0000000000000000000, -0.5000000000000000000 ) ) ;
#117 = PRODUCT_DEFINITION_FORMATION_WITH_SPECIFIED_SOURCE ( 'ANY', '', #18, .NOT_KNOWN. ) ;
#118 = DIRECTION ( 'NONE',  ( -0.0000000000000000000, -0.0000000000000000000, -1.000000000000000000 ) ) ;
#119 = CARTESIAN_POINT ( 'NONE',  ( -2.499999999999999600, 0.0000000000000000000, -0.5000000000000000000 ) ) ;
#120 = CC_DESIGN_PERSON_AND_ORGANIZATION_ASSIGNMENT ( #32, #60, ( #117 ) ) ;
#121 = DIRECTION ( 'NONE',  ( 1.000000000000000000, 0.0000000000000000000, -0.0000000000000000000 ) ) ;
#122 = EDGE_LOOP ( 'NONE', ( #71, #30, #99, #133 ) ) ;
#123 = DIRECTION ( 'NONE',  ( 0.0000000000000000000, 0.0000000000000000000, 1.000000000000000000 ) ) ;
#124 = CARTESIAN_POINT ( 'NONE',  ( 0.0000000000000000000, 0.0000000000000000000, 0.5000000000000000000 ) ) ;
#125 = SECURITY_CLASSIFICATION_LEVEL ( 'unclassified' ) ;
#126 = ORIENTED_EDGE ( 'NONE', *, *, #6, .F. ) ;
#127 = APPROVAL_ROLE ( '' ) ;
#128 = CYLINDRICAL_SURFACE ( 'NONE', #64, 2.499999999999999600 ) ;
#129 = ORIENTED_EDGE ( 'NONE', *, *, #104, .F. ) ;
#130 = COORDINATED_UNIVERSAL_TIME_OFFSET ( 5, 0, .BEHIND. ) ;
#131 = CC_DESIGN_APPROVAL ( #27, ( #174 ) ) ;
#132 = APPROVAL_PERSON_ORGANIZATION ( #39, #148, #162 ) ;
#133 = ORIENTED_EDGE ( 'NONE', *, *, #104, .T. ) ;
#134 = CARTESIAN_POINT ( 'NONE',  ( 0.0000000000000000000, 0.0000000000000000000, 0.5000000000000000000 ) ) ;
#135 = PLANE ( 'NONE',  #42 ) ;
#136 = DIRECTION ( 'NONE',  ( -0.0000000000000000000, -0.0000000000000000000, -1.000000000000000000 ) ) ;
#137 = AXIS2_PLACEMENT_3D ( 'NONE', #57, #17, #46 ) ;
#138 = PRODUCT_DEFINITION_SHAPE ( 'NONE', 'NONE',  #143 ) ;
#139 =( GEOMETRIC_REPRESENTATION_CONTEXT ( 3 ) GLOBAL_UNCERTAINTY_ASSIGNED_CONTEXT ( ( #1 ) ) GLOBAL_UNIT_ASSIGNED_CONTEXT ( ( #97, #73, #149 ) ) REPRESENTATION_CONTEXT ( 'NONE', 'WORKASPACE' ) );
#140 = DIRECTION ( 'NONE',  ( -1.000000000000000000, 0.0000000000000000000, 0.0000000000000000000 ) ) ;
#141 = APPROVAL_PERSON_ORGANIZATION ( #40, #27, #165 ) ;
#142 = APPROVAL_STATUS ( 'not_yet_approved' ) ;
#143 = PRODUCT_DEFINITION ( 'UNKNOWN', '', #117, #102 ) ;
#144 = CC_DESIGN_SECURITY_CLASSIFICATION ( #174, ( #117 ) ) ;
#145 = CARTESIAN_POINT ( 'NONE',  ( 2.499999999999999600, 3.061616997868382600E-016, 0.5000000000000000000 ) ) ;
#146 = LINE ( 'NONE', #77, #12 ) ;
#147 = PERSON_AND_ORGANIZATION ( #82, #98 ) ;
#148 = APPROVAL ( #31, 'UNSPECIFIED' ) ;
#149 =( NAMED_UNIT ( * ) SI_UNIT ( $, .STERADIAN. ) SOLID_ANGLE_UNIT ( ) );
#150 = ORIENTED_EDGE ( 'NONE', *, *, #95, .T. ) ;
#151 = APPROVAL_DATE_TIME ( #91, #148 ) ;
#152 = PERSON_AND_ORGANIZATION_ROLE ( 'classification_officer' ) ;
#153 = DIRECTION ( 'NONE',  ( 1.000000000000000000, 0.0000000000000000000, -0.0000000000000000000 ) ) ;
#154 = ADVANCED_FACE ( 'NONE', ( #75 ), #155, .T. ) ;
#155 = CYLINDRICAL_SURFACE ( 'NONE', #86, 2.499999999999999600 ) ;
#156 = DIRECTION ( 'NONE',  ( 0.0000000000000000000, 0.0000000000000000000, 1.000000000000000000 ) ) ;
#157 = CC_DESIGN_PERSON_AND_ORGANIZATION_ASSIGNMENT ( #147, #48, ( #117 ) ) ;
#158 = DIRECTION ( 'NONE',  ( 1.000000000000000000, 0.0000000000000000000, 0.0000000000000000000 ) ) ;
#159 = ORIENTED_EDGE ( 'NONE', *, *, #15, .F. ) ;
#160 = CARTESIAN_POINT ( 'NONE',  ( 0.0000000000000000000, 0.0000000000000000000, -0.5000000000000000000 ) ) ;
#161 = DIRECTION ( 'NONE',  ( 0.0000000000000000000, 0.0000000000000000000, 1.000000000000000000 ) ) ;
#162 = APPROVAL_ROLE ( '' ) ;
#163 = COORDINATED_UNIVERSAL_TIME_OFFSET ( 5, 0, .BEHIND. ) ;
#164 = CC_DESIGN_APPROVAL ( #78, ( #117 ) ) ;
#165 = APPROVAL_ROLE ( '' ) ;
#166 = CC_DESIGN_DATE_AND_TIME_ASSIGNMENT ( #87, #44, ( #174 ) ) ;
#167 = DATE_AND_TIME ( #3, #69 ) ;
#168 = ADVANCED_FACE ( 'NONE', ( #56 ), #96, .T. ) ;
#169 = SHAPE_DEFINITION_REPRESENTATION ( #138, #114 ) ;
#170 = LOCAL_TIME ( 10, 39, 35.00000000000000000, #63 ) ;
#171 = CARTESIAN_POINT ( 'NONE',  ( 0.0000000000000000000, 0.0000000000000000000, 0.5000000000000000000 ) ) ;
#172 = CARTESIAN_POINT ( 'NONE',  ( 0.0000000000000000000, 0.0000000000000000000, -0.5000000000000000000 ) ) ;
#173 = CALENDAR_DATE ( 2019, 7, 1 ) ;
#174 = SECURITY_CLASSIFICATION ( '', '', #125 ) ;
#175 = CIRCLE ( 'NONE', #55, 2.499999999999999600 ) ;
ENDSEC;
END-ISO-10303-21;
