ISO-10303-21;
HEADER;
FILE_DESCRIPTION (( 'STEP AP203' ),
    '1' );
FILE_NAME ('Web Model 17172_17182.step',
    '2021-08-09T15:07:21',
    ( '' ),
    ( '' ),
    'SwSTEP 2.0',
    'SolidWorks 2018',
    '' );
FILE_SCHEMA (( 'CONFIG_CONTROL_DESIGN' ));
ENDSEC;

DATA;
#1 = APPROVAL_PERSON_ORGANIZATION ( #122, #153, #35 ) ;
#2 = LINE ( 'NONE', #164, #103 ) ;
#3 = CC_DESIGN_APPROVAL ( #68, ( #95 ) ) ;
#4 = PERSON_AND_ORGANIZATION ( #165, #43 ) ;
#5 = CARTESIAN_POINT ( 'NONE',  ( 0.000000000000000000, 0.000000000000000000, 0.1574803149606299191 ) ) ;
#6 = CC_DESIGN_PERSON_AND_ORGANIZATION_ASSIGNMENT ( #41, #48, ( #95 ) ) ;
#7 = CC_DESIGN_SECURITY_CLASSIFICATION ( #95, ( #139 ) ) ;
#8 = CARTESIAN_POINT ( 'NONE',  ( 3.937007874015748143, 4.821444091131311894E-16, 0.000000000000000000 ) ) ;
#9 = DIRECTION ( 'NONE',  ( 1.000000000000000000, 0.000000000000000000, 0.000000000000000000 ) ) ;
#10 = COORDINATED_UNIVERSAL_TIME_OFFSET ( 5, 0, .BEHIND. ) ;
#11 = VECTOR ( 'NONE', #73, 39.37007874015748143 ) ;
#12 = DATE_TIME_ROLE ( 'creation_date' ) ;
#13 = APPROVAL_ROLE ( '' ) ;
#14 = ORIENTED_EDGE ( 'NONE', *, *, #101, .F. ) ;
#15 = LOCAL_TIME ( 11, 7, 21.00000000000000000, #10 ) ;
#16 = ORIENTED_EDGE ( 'NONE', *, *, #38, .T. ) ;
#17 = APPROVAL_PERSON_ORGANIZATION ( #4, #68, #129 ) ;
#18 = EDGE_LOOP ( 'NONE', ( #29, #131, #92, #72 ) ) ;
#19 = DIRECTION ( 'NONE',  ( 1.000000000000000000, 0.000000000000000000, 0.000000000000000000 ) ) ;
#20 = ADVANCED_FACE ( 'NONE', ( #81 ), #144, .T. ) ;
#21 = APPLICATION_PROTOCOL_DEFINITION ( 'international standard', 'config_control_design', 1994, #60 ) ;
#22 = ADVANCED_FACE ( 'NONE', ( #44 ), #170, .F. ) ;
#23 = ORIENTED_EDGE ( 'NONE', *, *, #50, .F. ) ;
#24 = PERSON_AND_ORGANIZATION_ROLE ( 'design_supplier' ) ;
#25 = PLANE ( 'NONE',  #97 ) ;
#26 = APPROVAL_STATUS ( 'not_yet_approved' ) ;
#27 = CARTESIAN_POINT ( 'NONE',  ( 0.000000000000000000, 0.000000000000000000, 0.1574803149606299191 ) ) ;
#28 = ADVANCED_BREP_SHAPE_REPRESENTATION ( 'Web Model 17172_17182', ( #114, #56 ), #168 ) ;
#29 = ORIENTED_EDGE ( 'NONE', *, *, #110, .F. ) ;
#30 = APPROVAL_PERSON_ORGANIZATION ( #66, #137, #13 ) ;
#31 = UNCERTAINTY_MEASURE_WITH_UNIT (LENGTH_MEASURE( 1.000000000000000082E-05 ), #104, 'distance_accuracy_value', 'NONE');
#32 = DATE_TIME_ROLE ( 'classification_date' ) ;
#33 = PRODUCT_DEFINITION ( 'UNKNOWN', '', #139, #171 ) ;
#34 =( LENGTH_UNIT ( ) NAMED_UNIT ( * ) SI_UNIT ( $, .METRE. ) );
#35 = APPROVAL_ROLE ( '' ) ;
#36 = DATE_AND_TIME ( #176, #70 ) ;
#37 = VERTEX_POINT ( 'NONE', #141 ) ;
#38 = EDGE_CURVE ( 'NONE', #51, #37, #124, .T. ) ;
#39 = ORIENTED_EDGE ( 'NONE', *, *, #61, .F. ) ;
#40 = CC_DESIGN_DATE_AND_TIME_ASSIGNMENT ( #107, #12, ( #33 ) ) ;
#41 = PERSON_AND_ORGANIZATION ( #165, #43 ) ;
#42 = EDGE_LOOP ( 'NONE', ( #16, #155 ) ) ;
#43 = ORGANIZATION ( 'UNSPECIFIED', 'UNSPECIFIED', '' ) ;
#44 = FACE_OUTER_BOUND ( 'NONE', #94, .T. ) ;
#45 = DIRECTION ( 'NONE',  ( -0.000000000000000000, -0.000000000000000000, -1.000000000000000000 ) ) ;
#46 = CALENDAR_DATE ( 2021, 9, 8 ) ;
#47 = MECHANICAL_CONTEXT ( 'NONE', #87, 'mechanical' ) ;
#48 = PERSON_AND_ORGANIZATION_ROLE ( 'classification_officer' ) ;
#49 = AXIS2_PLACEMENT_3D ( 'NONE', #177, #62, #159 ) ;
#50 = EDGE_CURVE ( 'NONE', #96, #140, #166, .T. ) ;
#51 = VERTEX_POINT ( 'NONE', #85 ) ;
#52 = AXIS2_PLACEMENT_3D ( 'NONE', #133, #172, #108 ) ;
#53 = SHAPE_DEFINITION_REPRESENTATION ( #158, #28 ) ;
#54 = LOCAL_TIME ( 11, 7, 21.00000000000000000, #130 ) ;
#55 = ORIENTED_EDGE ( 'NONE', *, *, #90, .T. ) ;
#56 = AXIS2_PLACEMENT_3D ( 'NONE', #174, #147, #9 ) ;
#57 = ORIENTED_EDGE ( 'NONE', *, *, #38, .F. ) ;
#58 = DIRECTION ( 'NONE',  ( 0.000000000000000000, 0.000000000000000000, 1.000000000000000000 ) ) ;
#59 = CC_DESIGN_PERSON_AND_ORGANIZATION_ASSIGNMENT ( #119, #163, ( #139 ) ) ;
#60 = APPLICATION_CONTEXT ( 'configuration controlled 3d designs of mechanical parts and assemblies' ) ;
#61 = EDGE_CURVE ( 'NONE', #140, #96, #169, .T. ) ;
#62 = DIRECTION ( 'NONE',  ( 0.000000000000000000, 0.000000000000000000, 1.000000000000000000 ) ) ;
#63 = LOCAL_TIME ( 11, 7, 21.00000000000000000, #138 ) ;
#64 = DATE_AND_TIME ( #149, #154 ) ;
#65 = ORIENTED_EDGE ( 'NONE', *, *, #61, .T. ) ;
#66 = PERSON_AND_ORGANIZATION ( #165, #43 ) ;
#67 = CC_DESIGN_APPROVAL ( #153, ( #33 ) ) ;
#68 = APPROVAL ( #26, 'UNSPECIFIED' ) ;
#69 = CALENDAR_DATE ( 2021, 9, 8 ) ;
#70 = LOCAL_TIME ( 11, 7, 21.00000000000000000, #162 ) ;
#71 = AXIS2_PLACEMENT_3D ( 'NONE', #116, #45, #100 ) ;
#72 = ORIENTED_EDGE ( 'NONE', *, *, #90, .F. ) ;
#73 = DIRECTION ( 'NONE',  ( -0.000000000000000000, -0.000000000000000000, -1.000000000000000000 ) ) ;
#74 = CARTESIAN_POINT ( 'NONE',  ( -3.937007874015748143, 0.000000000000000000, 0.000000000000000000 ) ) ;
#75 = ADVANCED_FACE ( 'NONE', ( #111 ), #25, .T. ) ;
#76 = DATE_AND_TIME ( #46, #63 ) ;
#77 = PRODUCT_RELATED_PRODUCT_CATEGORY ( 'detail', '', ( #93 ) ) ;
#78 = PERSON_AND_ORGANIZATION ( #165, #43 ) ;
#79 = CLOSED_SHELL ( 'NONE', ( #143, #20, #75, #22 ) ) ;
#80 = PERSON_AND_ORGANIZATION ( #165, #43 ) ;
#81 = FACE_OUTER_BOUND ( 'NONE', #123, .T. ) ;
#82 = CC_DESIGN_DATE_AND_TIME_ASSIGNMENT ( #156, #32, ( #95 ) ) ;
#83 = APPROVAL_DATE_TIME ( #76, #137 ) ;
#84 = LINE ( 'NONE', #175, #11 ) ;
#85 = CARTESIAN_POINT ( 'NONE',  ( -3.937007874015748143, 0.000000000000000000, 0.1574803149606299191 ) ) ;
#86 = CARTESIAN_POINT ( 'NONE',  ( 0.000000000000000000, 0.000000000000000000, 0.000000000000000000 ) ) ;
#87 = APPLICATION_CONTEXT ( 'configuration controlled 3d designs of mechanical parts and assemblies' ) ;
#88 = DIRECTION ( 'NONE',  ( 0.000000000000000000, 0.000000000000000000, 1.000000000000000000 ) ) ;
#89 = PERSON_AND_ORGANIZATION_ROLE ( 'design_owner' ) ;
#90 = EDGE_CURVE ( 'NONE', #51, #140, #2, .T. ) ;
#91 = PERSON_AND_ORGANIZATION_ROLE ( 'creator' ) ;
#92 = ORIENTED_EDGE ( 'NONE', *, *, #50, .T. ) ;
#93 = PRODUCT ( 'Web Model 17172_17182', 'Web Model 17172_17182', '', ( #47 ) ) ;
#94 = EDGE_LOOP ( 'NONE', ( #39, #23 ) ) ;
#95 = SECURITY_CLASSIFICATION ( '', '', #106 ) ;
#96 = VERTEX_POINT ( 'NONE', #8 ) ;
#97 = AXIS2_PLACEMENT_3D ( 'NONE', #118, #161, #105 ) ;
#98 = DIRECTION ( 'NONE',  ( 0.000000000000000000, 0.000000000000000000, 1.000000000000000000 ) ) ;
#99 = DIRECTION ( 'NONE',  ( 0.000000000000000000, 0.000000000000000000, 1.000000000000000000 ) ) ;
#100 = DIRECTION ( 'NONE',  ( -1.000000000000000000, 0.000000000000000000, 0.000000000000000000 ) ) ;
#101 = EDGE_CURVE ( 'NONE', #37, #96, #84, .T. ) ;
#102 = COORDINATED_UNIVERSAL_TIME_OFFSET ( 5, 0, .BEHIND. ) ;
#103 = VECTOR ( 'NONE', #173, 39.37007874015748143 ) ;
#104 =( CONVERSION_BASED_UNIT ( 'INCH', #112 ) LENGTH_UNIT ( ) NAMED_UNIT ( #132 ) );
#105 = DIRECTION ( 'NONE',  ( 1.000000000000000000, 0.000000000000000000, -0.000000000000000000 ) ) ;
#106 = SECURITY_CLASSIFICATION_LEVEL ( 'unclassified' ) ;
#107 = DATE_AND_TIME ( #69, #54 ) ;
#108 = DIRECTION ( 'NONE',  ( -1.000000000000000000, 0.000000000000000000, 0.000000000000000000 ) ) ;
#109 = PERSON_AND_ORGANIZATION ( #165, #43 ) ;
#110 = EDGE_CURVE ( 'NONE', #37, #51, #152, .T. ) ;
#111 = FACE_OUTER_BOUND ( 'NONE', #42, .T. ) ;
#112 = LENGTH_MEASURE_WITH_UNIT ( LENGTH_MEASURE( 0.02539999999999999897 ), #34 );
#113 = AXIS2_PLACEMENT_3D ( 'NONE', #157, #88, #120 ) ;
#114 = MANIFOLD_SOLID_BREP ( 'Boss-Extrude1', #79 ) ;
#115 = CYLINDRICAL_SURFACE ( 'NONE', #52, 3.937007874015748143 ) ;
#116 = CARTESIAN_POINT ( 'NONE',  ( 0.000000000000000000, 0.000000000000000000, 0.1574803149606299191 ) ) ;
#117 = APPROVAL_STATUS ( 'not_yet_approved' ) ;
#118 = CARTESIAN_POINT ( 'NONE',  ( 0.000000000000000000, 0.000000000000000000, 0.1574803149606299191 ) ) ;
#119 = PERSON_AND_ORGANIZATION ( #165, #43 ) ;
#120 = DIRECTION ( 'NONE',  ( 1.000000000000000000, 0.000000000000000000, 0.000000000000000000 ) ) ;
#121 = APPLICATION_PROTOCOL_DEFINITION ( 'international standard', 'config_control_design', 1994, #87 ) ;
#122 = PERSON_AND_ORGANIZATION ( #165, #43 ) ;
#123 = EDGE_LOOP ( 'NONE', ( #14, #57, #55, #65 ) ) ;
#124 = CIRCLE ( 'NONE', #142, 3.937007874015748143 ) ;
#125 = FACE_OUTER_BOUND ( 'NONE', #18, .T. ) ;
#126 = DIRECTION ( 'NONE',  ( 1.000000000000000000, 0.000000000000000000, -0.000000000000000000 ) ) ;
#127 = AXIS2_PLACEMENT_3D ( 'NONE', #86, #98, #126 ) ;
#128 = CC_DESIGN_PERSON_AND_ORGANIZATION_ASSIGNMENT ( #109, #89, ( #93 ) ) ;
#129 = APPROVAL_ROLE ( '' ) ;
#130 = COORDINATED_UNIVERSAL_TIME_OFFSET ( 5, 0, .BEHIND. ) ;
#131 = ORIENTED_EDGE ( 'NONE', *, *, #101, .T. ) ;
#132 = DIMENSIONAL_EXPONENTS ( 1.000000000000000000, 0.000000000000000000, 0.000000000000000000, 0.000000000000000000, 0.000000000000000000, 0.000000000000000000, 0.000000000000000000 ) ;
#133 = CARTESIAN_POINT ( 'NONE',  ( 0.000000000000000000, 0.000000000000000000, 0.1574803149606299191 ) ) ;
#134 = DIRECTION ( 'NONE',  ( 1.000000000000000000, 0.000000000000000000, 0.000000000000000000 ) ) ;
#135 = CC_DESIGN_PERSON_AND_ORGANIZATION_ASSIGNMENT ( #78, #91, ( #33 ) ) ;
#136 = APPROVAL_DATE_TIME ( #64, #153 ) ;
#137 = APPROVAL ( #117, 'UNSPECIFIED' ) ;
#138 = COORDINATED_UNIVERSAL_TIME_OFFSET ( 5, 0, .BEHIND. ) ;
#139 = PRODUCT_DEFINITION_FORMATION_WITH_SPECIFIED_SOURCE ( 'ANY', '', #93, .NOT_KNOWN. ) ;
#140 = VERTEX_POINT ( 'NONE', #74 ) ;
#141 = CARTESIAN_POINT ( 'NONE',  ( 3.937007874015748143, 4.821444091131311894E-16, 0.1574803149606299191 ) ) ;
#142 = AXIS2_PLACEMENT_3D ( 'NONE', #5, #99, #19 ) ;
#143 = ADVANCED_FACE ( 'NONE', ( #125 ), #115, .T. ) ;
#144 = CYLINDRICAL_SURFACE ( 'NONE', #71, 3.937007874015748143 ) ;
#145 = APPROVAL_STATUS ( 'not_yet_approved' ) ;
#146 =( NAMED_UNIT ( * ) SI_UNIT ( $, .STERADIAN. ) SOLID_ANGLE_UNIT ( ) );
#147 = DIRECTION ( 'NONE',  ( 0.000000000000000000, 0.000000000000000000, 1.000000000000000000 ) ) ;
#148 =( NAMED_UNIT ( * ) PLANE_ANGLE_UNIT ( ) SI_UNIT ( $, .RADIAN. ) );
#149 = CALENDAR_DATE ( 2021, 9, 8 ) ;
#150 = CC_DESIGN_APPROVAL ( #137, ( #139 ) ) ;
#151 = CALENDAR_DATE ( 2021, 9, 8 ) ;
#152 = CIRCLE ( 'NONE', #178, 3.937007874015748143 ) ;
#153 = APPROVAL ( #145, 'UNSPECIFIED' ) ;
#154 = LOCAL_TIME ( 11, 7, 21.00000000000000000, #102 ) ;
#155 = ORIENTED_EDGE ( 'NONE', *, *, #110, .T. ) ;
#156 = DATE_AND_TIME ( #151, #15 ) ;
#157 = CARTESIAN_POINT ( 'NONE',  ( 0.000000000000000000, 0.000000000000000000, 0.000000000000000000 ) ) ;
#158 = PRODUCT_DEFINITION_SHAPE ( 'NONE', 'NONE',  #33 ) ;
#159 = DIRECTION ( 'NONE',  ( 1.000000000000000000, 0.000000000000000000, 0.000000000000000000 ) ) ;
#160 = CC_DESIGN_PERSON_AND_ORGANIZATION_ASSIGNMENT ( #80, #24, ( #139 ) ) ;
#161 = DIRECTION ( 'NONE',  ( 0.000000000000000000, 0.000000000000000000, 1.000000000000000000 ) ) ;
#162 = COORDINATED_UNIVERSAL_TIME_OFFSET ( 5, 0, .BEHIND. ) ;
#163 = PERSON_AND_ORGANIZATION_ROLE ( 'creator' ) ;
#164 = CARTESIAN_POINT ( 'NONE',  ( -3.937007874015748143, 0.000000000000000000, 0.1574803149606299191 ) ) ;
#165 = PERSON ( 'UNSPECIFIED', 'UNSPECIFIED', 'UNSPECIFIED', ('UNSPECIFIED'), ('UNSPECIFIED'), ('UNSPECIFIED') ) ;
#166 = CIRCLE ( 'NONE', #113, 3.937007874015748143 ) ;
#167 = APPROVAL_DATE_TIME ( #36, #68 ) ;
#168 =( GEOMETRIC_REPRESENTATION_CONTEXT ( 3 ) GLOBAL_UNCERTAINTY_ASSIGNED_CONTEXT ( ( #31 ) ) GLOBAL_UNIT_ASSIGNED_CONTEXT ( ( #104, #148, #146 ) ) REPRESENTATION_CONTEXT ( 'NONE', 'WORKASPACE' ) );
#169 = CIRCLE ( 'NONE', #49, 3.937007874015748143 ) ;
#170 = PLANE ( 'NONE',  #127 ) ;
#171 = DESIGN_CONTEXT ( 'detailed design', #60, 'design' ) ;
#172 = DIRECTION ( 'NONE',  ( -0.000000000000000000, -0.000000000000000000, -1.000000000000000000 ) ) ;
#173 = DIRECTION ( 'NONE',  ( -0.000000000000000000, -0.000000000000000000, -1.000000000000000000 ) ) ;
#174 = CARTESIAN_POINT ( 'NONE',  ( 0.000000000000000000, 0.000000000000000000, 0.000000000000000000 ) ) ;
#175 = CARTESIAN_POINT ( 'NONE',  ( 3.937007874015748143, 4.821444091131311894E-16, 0.1574803149606299191 ) ) ;
#176 = CALENDAR_DATE ( 2021, 9, 8 ) ;
#177 = CARTESIAN_POINT ( 'NONE',  ( 0.000000000000000000, 0.000000000000000000, 0.000000000000000000 ) ) ;
#178 = AXIS2_PLACEMENT_3D ( 'NONE', #27, #58, #134 ) ;
ENDSEC;
END-ISO-10303-21;
