ISO-10303-21;
HEADER;
FILE_DESCRIPTION (( 'STEP AP214' ),
    '1' );
FILE_NAME ('19055-E0W.STEP',
    '2009-12-21T16:55:19',
    ( ' ' ),
    ( ' ' ),
    'SwSTEP 2.0',
    'SolidWorks 2009',
    '' );
FILE_SCHEMA (( 'AUTOMOTIVE_DESIGN' ));
ENDSEC;

DATA;
#1 = SURFACE_STYLE_USAGE ( .BOTH. , #16 ) ;
#2 = DIRECTION ( 'NONE',  ( -1.000000000000000000, 0.0000000000000000000, 0.0000000000000000000 ) ) ;
#3 = PRESENTATION_STYLE_ASSIGNMENT (( #1 ) ) ;
#4 = DIRECTION ( 'NONE',  ( 0.0000000000000000000, 1.000000000000000000, 0.0000000000000000000 ) ) ;
#5 = STYLED_ITEM ( 'NONE', ( #3 ), #193 ) ;
#6 = PRESENTATION_LAYER_ASSIGNMENT (  '', '', ( #5 ) ) ;
#7 =( LENGTH_UNIT ( ) NAMED_UNIT ( * ) SI_UNIT ( .MILLI., .METRE. ) );
#8 = MECHANICAL_DESIGN_GEOMETRIC_PRESENTATION_REPRESENTATION (  '', ( #5 ), #10 ) ;
#9 = UNCERTAINTY_MEASURE_WITH_UNIT (LENGTH_MEASURE( 1.000000000000000100E-005 ), #7, 'distance_accuracy_value', 'NONE');
#10 =( GEOMETRIC_REPRESENTATION_CONTEXT ( 3 ) GLOBAL_UNCERTAINTY_ASSIGNED_CONTEXT ( ( #9 ) ) GLOBAL_UNIT_ASSIGNED_CONTEXT ( ( #7, #12, #13 ) ) REPRESENTATION_CONTEXT ( 'NONE', 'WORKASPACE' ) );
#11 = SPHERICAL_SURFACE ( 'NONE', #15, 13.10000000000000100 ) ;
#12 =( NAMED_UNIT ( * ) PLANE_ANGLE_UNIT ( ) SI_UNIT ( $, .RADIAN. ) );
#13 =( NAMED_UNIT ( * ) SI_UNIT ( $, .STERADIAN. ) SOLID_ANGLE_UNIT ( ) );
#14 = CARTESIAN_POINT ( 'NONE',  ( 0.0000000000000000000, 0.0000000000000000000, -7.249999999999999100 ) ) ;
#15 = AXIS2_PLACEMENT_3D ( 'NONE', #14, #2, #4 ) ;
#16 = SURFACE_SIDE_STYLE ('',( #17 ) ) ;
#17 = SURFACE_STYLE_FILL_AREA ( #18 ) ;
#18 = FILL_AREA_STYLE ('',( #19 ) ) ;
#19 = FILL_AREA_STYLE_COLOUR ( '', #20 ) ;
#20 = COLOUR_RGB ( '',0.9568627450980391500, 0.9490196078431372100, 0.9607843137254902200 ) ;
#21 = FACE_OUTER_BOUND ( 'NONE', #192, .T. ) ;
#22 = SURFACE_SIDE_STYLE ('',( #51 ) ) ;
#23 = STYLED_ITEM ( 'NONE', ( #25 ), #196 ) ;
#24 = SURFACE_STYLE_USAGE ( .BOTH. , #22 ) ;
#25 = PRESENTATION_STYLE_ASSIGNMENT (( #24 ) ) ;
#26 = PRESENTATION_LAYER_ASSIGNMENT (  '', '', ( #23 ) ) ;
#27 =( LENGTH_UNIT ( ) NAMED_UNIT ( * ) SI_UNIT ( .MILLI., .METRE. ) );
#28 = MECHANICAL_DESIGN_GEOMETRIC_PRESENTATION_REPRESENTATION (  '', ( #23 ), #34 ) ;
#29 =( NAMED_UNIT ( * ) PLANE_ANGLE_UNIT ( ) SI_UNIT ( $, .RADIAN. ) );
#30 = UNCERTAINTY_MEASURE_WITH_UNIT (LENGTH_MEASURE( 1.000000000000000100E-005 ), #27, 'distance_accuracy_value', 'NONE');
#31 =( NAMED_UNIT ( * ) SI_UNIT ( $, .STERADIAN. ) SOLID_ANGLE_UNIT ( ) );
#32 = MECHANICAL_DESIGN_GEOMETRIC_PRESENTATION_REPRESENTATION (  '', ( #42 ), #134 ) ;
#33 = PRESENTATION_LAYER_ASSIGNMENT (  '', '', ( #42 ) ) ;
#34 =( GEOMETRIC_REPRESENTATION_CONTEXT ( 3 ) GLOBAL_UNCERTAINTY_ASSIGNED_CONTEXT ( ( #30 ) ) GLOBAL_UNIT_ASSIGNED_CONTEXT ( ( #27, #29, #31 ) ) REPRESENTATION_CONTEXT ( 'NONE', 'WORKASPACE' ) );
#35 =( LENGTH_UNIT ( ) NAMED_UNIT ( * ) SI_UNIT ( .MILLI., .METRE. ) );
#36 = DIRECTION ( 'NONE',  ( 1.000000000000000000, 0.0000000000000000000, 0.0000000000000000000 ) ) ;
#37 = AXIS2_PLACEMENT_3D ( 'NONE', #40, #39, #36 ) ;
#38 = CYLINDRICAL_SURFACE ( 'NONE', #37, 12.50000000000000000 ) ;
#39 = DIRECTION ( 'NONE',  ( -0.0000000000000000000, -0.0000000000000000000, 1.000000000000000000 ) ) ;
#40 = CARTESIAN_POINT ( 'NONE',  ( 0.0000000000000000000, 0.0000000000000000000, 4.308132045400366600 ) ) ;
#41 =( NAMED_UNIT ( * ) PLANE_ANGLE_UNIT ( ) SI_UNIT ( $, .RADIAN. ) );
#42 = STYLED_ITEM ( 'NONE', ( #43 ), #199 ) ;
#43 = PRESENTATION_STYLE_ASSIGNMENT (( #44 ) ) ;
#44 = SURFACE_STYLE_USAGE ( .BOTH. , #45 ) ;
#45 = SURFACE_SIDE_STYLE ('',( #46 ) ) ;
#46 = SURFACE_STYLE_FILL_AREA ( #47 ) ;
#47 = FILL_AREA_STYLE ('',( #48 ) ) ;
#48 = FILL_AREA_STYLE_COLOUR ( '', #49 ) ;
#49 = COLOUR_RGB ( '',0.7960784313725489700, 0.8235294117647058400, 0.9372549019607843100 ) ;
#50 = FILL_AREA_STYLE_COLOUR ( '', #53 ) ;
#51 = SURFACE_STYLE_FILL_AREA ( #52 ) ;
#52 = FILL_AREA_STYLE ('',( #50 ) ) ;
#53 = COLOUR_RGB ( '',0.9568627450980391500, 0.9490196078431372100, 0.9607843137254902200 ) ;
#54 = FACE_OUTER_BOUND ( 'NONE', #185, .T. ) ;
#55 = DIRECTION ( 'NONE',  ( -0.0000000000000000000, -0.0000000000000000000, 1.000000000000000000 ) ) ;
#56 = VECTOR ( 'NONE', #55, 1000.000000000000000 ) ;
#57 = CARTESIAN_POINT ( 'NONE',  ( 12.50000000000000000, 0.0000000000000000000, 4.308132045400366600 ) ) ;
#58 = LINE ( 'NONE', #57, #56 ) ;
#59 = DIRECTION ( 'NONE',  ( 0.0000000000000000000, 1.000000000000000000, 0.0000000000000000000 ) ) ;
#60 = DIRECTION ( 'NONE',  ( -1.000000000000000000, 0.0000000000000000000, 0.0000000000000000000 ) ) ;
#61 = CARTESIAN_POINT ( 'NONE',  ( 0.0000000000000000000, 0.0000000000000000000, -7.249999999999999100 ) ) ;
#62 = AXIS2_PLACEMENT_3D ( 'NONE', #61, #60, #59 ) ;
#63 = SPHERICAL_SURFACE ( 'NONE', #62, 13.10000000000000100 ) ;
#64 =( GEOMETRIC_REPRESENTATION_CONTEXT ( 3 ) GLOBAL_UNCERTAINTY_ASSIGNED_CONTEXT ( ( #65 ) ) GLOBAL_UNIT_ASSIGNED_CONTEXT ( ( #68, #67, #66 ) ) REPRESENTATION_CONTEXT ( 'NONE', 'WORKASPACE' ) );
#65 = UNCERTAINTY_MEASURE_WITH_UNIT (LENGTH_MEASURE( 1.000000000000000100E-005 ), #68, 'distance_accuracy_value', 'NONE');
#66 =( NAMED_UNIT ( * ) SI_UNIT ( $, .STERADIAN. ) SOLID_ANGLE_UNIT ( ) );
#67 =( NAMED_UNIT ( * ) PLANE_ANGLE_UNIT ( ) SI_UNIT ( $, .RADIAN. ) );
#68 =( LENGTH_UNIT ( ) NAMED_UNIT ( * ) SI_UNIT ( .MILLI., .METRE. ) );
#69 = MECHANICAL_DESIGN_GEOMETRIC_PRESENTATION_REPRESENTATION (  '', ( #71 ), #64 ) ;
#70 = PRESENTATION_LAYER_ASSIGNMENT (  '', '', ( #71 ) ) ;
#71 = STYLED_ITEM ( 'NONE', ( #72 ), #229 ) ;
#72 = PRESENTATION_STYLE_ASSIGNMENT (( #73 ) ) ;
#73 = SURFACE_STYLE_USAGE ( .BOTH. , #74 ) ;
#74 = SURFACE_SIDE_STYLE ('',( #75 ) ) ;
#75 = SURFACE_STYLE_FILL_AREA ( #76 ) ;
#76 = FILL_AREA_STYLE ('',( #77 ) ) ;
#77 = FILL_AREA_STYLE_COLOUR ( '', #78 ) ;
#78 = COLOUR_RGB ( '',0.9568627450980391500, 0.9490196078431372100, 0.9607843137254902200 ) ;
#79 = FACE_OUTER_BOUND ( 'NONE', #220, .T. ) ;
#80 = CARTESIAN_POINT ( 'NONE',  ( 0.0000000000000000000, 8.021171617536571400E-016, 5.850000000000001400 ) ) ;
#81 = CARTESIAN_POINT ( 'NONE',  ( 0.0000000000000000000, 0.0000000000000000000, -3.330816411546920100 ) ) ;
#82 = CARTESIAN_POINT ( 'NONE',  ( 12.50000000000000000, 0.0000000000000000000, -3.330816411546920100 ) ) ;
#83 = DIRECTION ( 'NONE',  ( 1.000000000000000000, 0.0000000000000000000, 0.0000000000000000000 ) ) ;
#84 = DIRECTION ( 'NONE',  ( -0.0000000000000000000, -0.0000000000000000000, 1.000000000000000000 ) ) ;
#85 = AXIS2_PLACEMENT_3D ( 'NONE', #81, #84, #83 ) ;
#86 = CIRCLE ( 'NONE', #85, 12.50000000000000000 ) ;
#87 = UNCERTAINTY_MEASURE_WITH_UNIT (LENGTH_MEASURE( 1.000000000000000100E-005 ), #35, 'distance_accuracy_value', 'NONE');
#88 =( NAMED_UNIT ( * ) PLANE_ANGLE_UNIT ( ) SI_UNIT ( $, .RADIAN. ) );
#89 =( LENGTH_UNIT ( ) NAMED_UNIT ( * ) SI_UNIT ( .MILLI., .METRE. ) );
#90 = MECHANICAL_DESIGN_GEOMETRIC_PRESENTATION_REPRESENTATION (  '', ( #92 ), #146 ) ;
#91 = PRESENTATION_LAYER_ASSIGNMENT (  '', '', ( #92 ) ) ;
#92 = STYLED_ITEM ( 'NONE', ( #93 ), #218 ) ;
#93 = PRESENTATION_STYLE_ASSIGNMENT (( #94 ) ) ;
#94 = SURFACE_STYLE_USAGE ( .BOTH. , #95 ) ;
#95 = SURFACE_SIDE_STYLE ('',( #96 ) ) ;
#96 = SURFACE_STYLE_FILL_AREA ( #97 ) ;
#97 = FILL_AREA_STYLE ('',( #105 ) ) ;
#98 = COLOUR_RGB ( '',0.9568627450980391500, 0.9490196078431372100, 0.9607843137254902200 ) ;
#99 = FACE_OUTER_BOUND ( 'NONE', #200, .T. ) ;
#100 = DIRECTION ( 'NONE',  ( -0.0000000000000000000, -0.0000000000000000000, 1.000000000000000000 ) ) ;
#101 = VECTOR ( 'NONE', #100, 1000.000000000000000 ) ;
#102 =( NAMED_UNIT ( * ) SI_UNIT ( $, .STERADIAN. ) SOLID_ANGLE_UNIT ( ) );
#103 = CARTESIAN_POINT ( 'NONE',  ( -12.50000000000000000, 1.530757942277971600E-015, 4.308132045400366600 ) ) ;
#104 = LINE ( 'NONE', #103, #101 ) ;
#105 = FILL_AREA_STYLE_COLOUR ( '', #98 ) ;
#106 = CARTESIAN_POINT ( 'NONE',  ( -12.50000000000000000, 1.530757942277971600E-015, -3.330816411546920100 ) ) ;
#107 = DIRECTION ( 'NONE',  ( 1.000000000000000000, 0.0000000000000000000, 0.0000000000000000000 ) ) ;
#108 = DIRECTION ( 'NONE',  ( -0.0000000000000000000, -0.0000000000000000000, 1.000000000000000000 ) ) ;
#109 = CARTESIAN_POINT ( 'NONE',  ( 0.0000000000000000000, 0.0000000000000000000, -3.330816411546920100 ) ) ;
#110 = AXIS2_PLACEMENT_3D ( 'NONE', #109, #108, #107 ) ;
#111 = CIRCLE ( 'NONE', #110, 12.50000000000000000 ) ;
#112 = UNCERTAINTY_MEASURE_WITH_UNIT (LENGTH_MEASURE( 1.000000000000000100E-005 ), #115, 'distance_accuracy_value', 'NONE');
#113 =( NAMED_UNIT ( * ) SI_UNIT ( $, .STERADIAN. ) SOLID_ANGLE_UNIT ( ) );
#114 =( NAMED_UNIT ( * ) PLANE_ANGLE_UNIT ( ) SI_UNIT ( $, .RADIAN. ) );
#115 =( LENGTH_UNIT ( ) NAMED_UNIT ( * ) SI_UNIT ( .MILLI., .METRE. ) );
#116 = CARTESIAN_POINT ( 'NONE',  ( 0.0000000000000000000, 0.0000000000000000000, -3.330816411546920100 ) ) ;
#117 = CIRCLE ( 'NONE', #143, 12.50000000000000000 ) ;
#118 = DIRECTION ( 'NONE',  ( 1.000000000000000000, 0.0000000000000000000, 0.0000000000000000000 ) ) ;
#119 = DIRECTION ( 'NONE',  ( -0.0000000000000000000, -0.0000000000000000000, 1.000000000000000000 ) ) ;
#120 = AXIS2_PLACEMENT_3D ( 'NONE', #144, #119, #118 ) ;
#121 = CARTESIAN_POINT ( 'NONE',  ( 0.0000000000000000000, 12.50000000000000200, -3.330816411546920100 ) ) ;
#122 = DIRECTION ( 'NONE',  ( 1.000000000000000000, 0.0000000000000000000, 0.0000000000000000000 ) ) ;
#123 = DIRECTION ( 'NONE',  ( -0.0000000000000000000, -0.0000000000000000000, 1.000000000000000000 ) ) ;
#124 = CARTESIAN_POINT ( 'NONE',  ( 0.0000000000000000000, 0.0000000000000000000, -5.849999999999999600 ) ) ;
#125 = AXIS2_PLACEMENT_3D ( 'NONE', #124, #123, #122 ) ;
#126 = CIRCLE ( 'NONE', #125, 12.50000000000000000 ) ;
#127 = DIRECTION ( 'NONE',  ( 0.0000000000000000000, 0.0000000000000000000, -1.000000000000000000 ) ) ;
#128 = DIRECTION ( 'NONE',  ( 1.000000000000000000, 0.0000000000000000000, 0.0000000000000000000 ) ) ;
#129 = CARTESIAN_POINT ( 'NONE',  ( 0.0000000000000000000, 0.0000000000000000000, -7.249999999999999100 ) ) ;
#130 = AXIS2_PLACEMENT_3D ( 'NONE', #129, #128, #127 ) ;
#131 = CIRCLE ( 'NONE', #130, 13.10000000000000100 ) ;
#132 = CARTESIAN_POINT ( 'NONE',  ( -12.50000000000000000, 1.530757942277971600E-015, -5.849999999999999600 ) ) ;
#133 = CARTESIAN_POINT ( 'NONE',  ( 12.50000000000000000, 0.0000000000000000000, -5.849999999999999600 ) ) ;
#134 =( GEOMETRIC_REPRESENTATION_CONTEXT ( 3 ) GLOBAL_UNCERTAINTY_ASSIGNED_CONTEXT ( ( #87 ) ) GLOBAL_UNIT_ASSIGNED_CONTEXT ( ( #35, #41, #102 ) ) REPRESENTATION_CONTEXT ( 'NONE', 'WORKASPACE' ) );
#135 = CARTESIAN_POINT ( 'NONE',  ( -1.530757942277971800E-015, -12.50000000000000200, -3.330816411546920100 ) ) ;
#136 = DIRECTION ( 'NONE',  ( -1.224606353822377300E-016, -1.000000000000000000, 0.0000000000000000000 ) ) ;
#137 = DIRECTION ( 'NONE',  ( -1.000000000000000000, 1.224606353822377300E-016, 0.0000000000000000000 ) ) ;
#138 = CARTESIAN_POINT ( 'NONE',  ( 0.0000000000000000000, 0.0000000000000000000, -7.249999999999999100 ) ) ;
#139 = AXIS2_PLACEMENT_3D ( 'NONE', #138, #137, #136 ) ;
#140 = CIRCLE ( 'NONE', #139, 13.10000000000000100 ) ;
#141 = DIRECTION ( 'NONE',  ( 1.000000000000000000, 0.0000000000000000000, 0.0000000000000000000 ) ) ;
#142 = DIRECTION ( 'NONE',  ( -0.0000000000000000000, -0.0000000000000000000, 1.000000000000000000 ) ) ;
#143 = AXIS2_PLACEMENT_3D ( 'NONE', #116, #142, #141 ) ;
#144 = CARTESIAN_POINT ( 'NONE',  ( 0.0000000000000000000, 0.0000000000000000000, 4.308132045400366600 ) ) ;
#145 = CYLINDRICAL_SURFACE ( 'NONE', #120, 12.50000000000000000 ) ;
#146 =( GEOMETRIC_REPRESENTATION_CONTEXT ( 3 ) GLOBAL_UNCERTAINTY_ASSIGNED_CONTEXT ( ( #147 ) ) GLOBAL_UNIT_ASSIGNED_CONTEXT ( ( #89, #88, #148 ) ) REPRESENTATION_CONTEXT ( 'NONE', 'WORKASPACE' ) );
#147 = UNCERTAINTY_MEASURE_WITH_UNIT (LENGTH_MEASURE( 1.000000000000000100E-005 ), #89, 'distance_accuracy_value', 'NONE');
#148 =( NAMED_UNIT ( * ) SI_UNIT ( $, .STERADIAN. ) SOLID_ANGLE_UNIT ( ) );
#149 = PRESENTATION_STYLE_ASSIGNMENT (( #150 ) ) ;
#150 = SURFACE_STYLE_USAGE ( .BOTH. , #151 ) ;
#151 = SURFACE_SIDE_STYLE ('',( #152 ) ) ;
#152 = SURFACE_STYLE_FILL_AREA ( #165 ) ;
#153 = UNCERTAINTY_MEASURE_WITH_UNIT (LENGTH_MEASURE( 1.000000000000000100E-005 ), #179, 'distance_accuracy_value', 'NONE');
#154 =( NAMED_UNIT ( * ) SI_UNIT ( $, .STERADIAN. ) SOLID_ANGLE_UNIT ( ) );
#155 = ADVANCED_BREP_SHAPE_REPRESENTATION ( '19055-E0W', ( #199, #170 ), #164 ) ;
#156 =( NAMED_UNIT ( * ) PLANE_ANGLE_UNIT ( ) SI_UNIT ( $, .RADIAN. ) );
#157 = DIRECTION ( 'NONE',  ( 1.000000000000000000, 0.0000000000000000000, 0.0000000000000000000 ) ) ;
#158 = PRODUCT ( '19055-E0W', '19055-E0W', '', ( #159 ) ) ;
#159 = PRODUCT_CONTEXT ( 'NONE', #178, 'mechanical' ) ;
#160 = APPLICATION_PROTOCOL_DEFINITION ( 'draft international standard', 'automotive_design', 1998, #178 ) ;
#161 = MECHANICAL_DESIGN_GEOMETRIC_PRESENTATION_REPRESENTATION (  '', ( #163 ), #180 ) ;
#162 = PRESENTATION_LAYER_ASSIGNMENT (  '', '', ( #163 ) ) ;
#163 = STYLED_ITEM ( 'NONE', ( #149 ), #155 ) ;
#164 =( GEOMETRIC_REPRESENTATION_CONTEXT ( 3 ) GLOBAL_UNCERTAINTY_ASSIGNED_CONTEXT ( ( #112 ) ) GLOBAL_UNIT_ASSIGNED_CONTEXT ( ( #115, #114, #113 ) ) REPRESENTATION_CONTEXT ( 'NONE', 'WORKASPACE' ) );
#165 = FILL_AREA_STYLE ('',( #166 ) ) ;
#166 = FILL_AREA_STYLE_COLOUR ( '', #167 ) ;
#167 = COLOUR_RGB ( '',0.7960784313725489700, 0.8235294117647058400, 0.9372549019607843100 ) ;
#168 = DIRECTION ( 'NONE',  ( 0.0000000000000000000, 0.0000000000000000000, 1.000000000000000000 ) ) ;
#169 = SHAPE_DEFINITION_REPRESENTATION ( #171, #155 ) ;
#170 = AXIS2_PLACEMENT_3D ( 'NONE', #181, #168, #157 ) ;
#171 = PRODUCT_DEFINITION_SHAPE ( 'NONE', 'NONE',  #174 ) ;
#172 = PRODUCT_RELATED_PRODUCT_CATEGORY ( 'part', '', ( #158 ) ) ;
#173 = PRODUCT_DEFINITION_FORMATION_WITH_SPECIFIED_SOURCE ( 'ANY', '', #158, .NOT_KNOWN. ) ;
#174 = PRODUCT_DEFINITION ( 'UNKNOWN', '', #173, #175 ) ;
#175 = PRODUCT_DEFINITION_CONTEXT ( 'detailed design', #177, 'design' ) ;
#176 = APPLICATION_PROTOCOL_DEFINITION ( 'draft international standard', 'automotive_design', 1998, #177 ) ;
#177 = APPLICATION_CONTEXT ( 'automotive_design' ) ;
#178 = APPLICATION_CONTEXT ( 'automotive_design' ) ;
#179 =( LENGTH_UNIT ( ) NAMED_UNIT ( * ) SI_UNIT ( .MILLI., .METRE. ) );
#180 =( GEOMETRIC_REPRESENTATION_CONTEXT ( 3 ) GLOBAL_UNCERTAINTY_ASSIGNED_CONTEXT ( ( #153 ) ) GLOBAL_UNIT_ASSIGNED_CONTEXT ( ( #179, #156, #154 ) ) REPRESENTATION_CONTEXT ( 'NONE', 'WORKASPACE' ) );
#181 = CARTESIAN_POINT ( 'NONE',  ( 0.0000000000000000000, 0.0000000000000000000, 0.0000000000000000000 ) ) ;
#182 = ORIENTED_EDGE ( 'NONE', *, *, #184, .F. ) ;
#183 = ORIENTED_EDGE ( 'NONE', *, *, #184, .T. ) ;
#184 = EDGE_CURVE ( 'NONE', #226, #206, #243, .T. ) ;
#185 = EDGE_LOOP ( 'NONE', ( #197, #187, #203, #182, #186 ) ) ;
#186 = ORIENTED_EDGE ( 'NONE', *, *, #223, .F. ) ;
#187 = ORIENTED_EDGE ( 'NONE', *, *, #188, .T. ) ;
#188 = EDGE_CURVE ( 'NONE', #211, #210, #245, .T. ) ;
#189 = EDGE_LOOP ( 'NONE', ( #204, #205 ) ) ;
#190 = CLOSED_SHELL ( 'NONE', ( #218, #229, #193, #196, #191 ) ) ;
#191 = ADVANCED_FACE ( 'NONE', ( #242 ), #253, .F. ) ;
#192 = EDGE_LOOP ( 'NONE', ( #198, #183, #194, #195 ) ) ;
#193 = ADVANCED_FACE ( 'NONE', ( #21 ), #11, .T. ) ;
#194 = ORIENTED_EDGE ( 'NONE', *, *, #202, .T. ) ;
#195 = ORIENTED_EDGE ( 'NONE', *, *, #214, .T. ) ;
#196 = ADVANCED_FACE ( 'NONE', ( #54 ), #38, .T. ) ;
#197 = ORIENTED_EDGE ( 'NONE', *, *, #217, .F. ) ;
#198 = ORIENTED_EDGE ( 'NONE', *, *, #225, .F. ) ;
#199 = MANIFOLD_SOLID_BREP ( 'NONE', #190 ) ;
#200 = EDGE_LOOP ( 'NONE', ( #208, #212, #207, #201, #237 ) ) ;
#201 = ORIENTED_EDGE ( 'NONE', *, *, #202, .F. ) ;
#202 = EDGE_CURVE ( 'NONE', #206, #219, #86, .T. ) ;
#203 = ORIENTED_EDGE ( 'NONE', *, *, #238, .T. ) ;
#204 = ORIENTED_EDGE ( 'NONE', *, *, #209, .F. ) ;
#205 = ORIENTED_EDGE ( 'NONE', *, *, #188, .F. ) ;
#206 = VERTEX_POINT ( 'NONE', #82 ) ;
#207 = ORIENTED_EDGE ( 'NONE', *, *, #215, .F. ) ;
#208 = ORIENTED_EDGE ( 'NONE', *, *, #209, .T. ) ;
#209 = EDGE_CURVE ( 'NONE', #210, #211, #126, .T. ) ;
#210 = VERTEX_POINT ( 'NONE', #133 ) ;
#211 = VERTEX_POINT ( 'NONE', #132 ) ;
#212 = ORIENTED_EDGE ( 'NONE', *, *, #217, .T. ) ;
#213 = ORIENTED_EDGE ( 'NONE', *, *, #214, .F. ) ;
#214 = EDGE_CURVE ( 'NONE', #219, #227, #131, .T. ) ;
#215 = EDGE_CURVE ( 'NONE', #219, #216, #111, .T. ) ;
#216 = VERTEX_POINT ( 'NONE', #106 ) ;
#217 = EDGE_CURVE ( 'NONE', #211, #216, #104, .T. ) ;
#218 = ADVANCED_FACE ( 'NONE', ( #99 ), #145, .T. ) ;
#219 = VERTEX_POINT ( 'NONE', #121 ) ;
#220 = EDGE_LOOP ( 'NONE', ( #221, #222, #224, #213 ) ) ;
#221 = ORIENTED_EDGE ( 'NONE', *, *, #215, .T. ) ;
#222 = ORIENTED_EDGE ( 'NONE', *, *, #223, .T. ) ;
#223 = EDGE_CURVE ( 'NONE', #216, #226, #117, .T. ) ;
#224 = ORIENTED_EDGE ( 'NONE', *, *, #225, .T. ) ;
#225 = EDGE_CURVE ( 'NONE', #226, #227, #140, .T. ) ;
#226 = VERTEX_POINT ( 'NONE', #135 ) ;
#227 = VERTEX_POINT ( 'NONE', #80 ) ;
#228 = PRESENTATION_STYLE_ASSIGNMENT (( #230 ) ) ;
#229 = ADVANCED_FACE ( 'NONE', ( #79 ), #63, .T. ) ;
#230 = SURFACE_STYLE_USAGE ( .BOTH. , #231 ) ;
#231 = SURFACE_SIDE_STYLE ('',( #232 ) ) ;
#232 = SURFACE_STYLE_FILL_AREA ( #233 ) ;
#233 = FILL_AREA_STYLE ('',( #234 ) ) ;
#234 = FILL_AREA_STYLE_COLOUR ( '', #235 ) ;
#235 = COLOUR_RGB ( '',0.9568627450980391500, 0.9490196078431372100, 0.9607843137254902200 ) ;
#236 = DIRECTION ( 'NONE',  ( 1.000000000000000000, 0.0000000000000000000, 0.0000000000000000000 ) ) ;
#237 = ORIENTED_EDGE ( 'NONE', *, *, #238, .F. ) ;
#238 = EDGE_CURVE ( 'NONE', #210, #206, #58, .T. ) ;
#239 = DIRECTION ( 'NONE',  ( -0.0000000000000000000, -0.0000000000000000000, 1.000000000000000000 ) ) ;
#240 = CARTESIAN_POINT ( 'NONE',  ( 0.0000000000000000000, 0.0000000000000000000, -5.849999999999999600 ) ) ;
#241 = AXIS2_PLACEMENT_3D ( 'NONE', #240, #239, #236 ) ;
#242 = FACE_OUTER_BOUND ( 'NONE', #189, .T. ) ;
#243 = CIRCLE ( 'NONE', #248, 12.50000000000000000 ) ;
#244 = DIRECTION ( 'NONE',  ( 1.000000000000000000, 0.0000000000000000000, 0.0000000000000000000 ) ) ;
#245 = CIRCLE ( 'NONE', #241, 12.50000000000000000 ) ;
#246 = DIRECTION ( 'NONE',  ( -0.0000000000000000000, -0.0000000000000000000, 1.000000000000000000 ) ) ;
#247 = CARTESIAN_POINT ( 'NONE',  ( 0.0000000000000000000, 0.0000000000000000000, -3.330816411546920100 ) ) ;
#248 = AXIS2_PLACEMENT_3D ( 'NONE', #247, #246, #244 ) ;
#249 = DIRECTION ( 'NONE',  ( 1.000000000000000000, 0.0000000000000000000, 0.0000000000000000000 ) ) ;
#250 = DIRECTION ( 'NONE',  ( 0.0000000000000000000, -0.0000000000000000000, 1.000000000000000000 ) ) ;
#251 = AXIS2_PLACEMENT_3D ( 'NONE', #252, #250, #249 ) ;
#252 = CARTESIAN_POINT ( 'NONE',  ( 0.0000000000000000000, 2.149255132503604500E-015, -5.849999999999999600 ) ) ;
#253 = PLANE ( 'NONE',  #251 ) ;
#254 =( GEOMETRIC_REPRESENTATION_CONTEXT ( 3 ) GLOBAL_UNCERTAINTY_ASSIGNED_CONTEXT ( ( #257 ) ) GLOBAL_UNIT_ASSIGNED_CONTEXT ( ( #256, #259, #260 ) ) REPRESENTATION_CONTEXT ( 'NONE', 'WORKASPACE' ) );
#255 = PRESENTATION_LAYER_ASSIGNMENT (  '', '', ( #261 ) ) ;
#256 =( LENGTH_UNIT ( ) NAMED_UNIT ( * ) SI_UNIT ( .MILLI., .METRE. ) );
#257 = UNCERTAINTY_MEASURE_WITH_UNIT (LENGTH_MEASURE( 1.000000000000000100E-005 ), #256, 'distance_accuracy_value', 'NONE');
#258 = MECHANICAL_DESIGN_GEOMETRIC_PRESENTATION_REPRESENTATION (  '', ( #261 ), #254 ) ;
#259 =( NAMED_UNIT ( * ) PLANE_ANGLE_UNIT ( ) SI_UNIT ( $, .RADIAN. ) );
#260 =( NAMED_UNIT ( * ) SI_UNIT ( $, .STERADIAN. ) SOLID_ANGLE_UNIT ( ) );
#261 = STYLED_ITEM ( 'NONE', ( #228 ), #191 ) ;
ENDSEC;
END-ISO-10303-21;
