ISO-10303-21;
HEADER;
FILE_DESCRIPTION (( 'STEP AP203' ),
    '1' );
FILE_NAME ('Web Model 88429.STEP',
    '2017-02-01T16:22:01',
    ( '' ),
    ( '' ),
    'SwSTEP 2.0',
    'SolidWorks 2016',
    '' );
FILE_SCHEMA (( 'CONFIG_CONTROL_DESIGN' ));
ENDSEC;

DATA;
#1 = ORIENTED_EDGE ( 'NONE', *, *, #156, .F. ) ;
#2 = PERSON_AND_ORGANIZATION ( #87, #59 ) ;
#3 = EDGE_LOOP ( 'NONE', ( #137, #147, #24, #68 ) ) ;
#4 = CALENDAR_DATE ( 2017, 1, 2 ) ;
#5 = DIRECTION ( 'NONE',  ( 1.000000000000000000, 0.0000000000000000000, 0.0000000000000000000 ) ) ;
#6 = DIRECTION ( 'NONE',  ( -0.0000000000000000000, -0.0000000000000000000, 1.000000000000000000 ) ) ;
#7 = PLANE ( 'NONE',  #151 ) ;
#8 = CARTESIAN_POINT ( 'NONE',  ( 0.0000000000000000000, 0.0000000000000000000, 0.0000000000000000000 ) ) ;
#9 = EDGE_CURVE ( 'NONE', #169, #18, #128, .T. ) ;
#10 = AXIS2_PLACEMENT_3D ( 'NONE', #62, #92, #46 ) ;
#11 = SECURITY_CLASSIFICATION_LEVEL ( 'unclassified' ) ;
#12 = PERSON_AND_ORGANIZATION_ROLE ( 'creator' ) ;
#13 = MANIFOLD_SOLID_BREP ( 'Revolve1', #47 ) ;
#14 =( LENGTH_UNIT ( ) NAMED_UNIT ( * ) SI_UNIT ( .MILLI., .METRE. ) );
#15 = APPROVAL_ROLE ( '' ) ;
#16 = COORDINATED_UNIVERSAL_TIME_OFFSET ( 5, 0, .BEHIND. ) ;
#17 = PERSON_AND_ORGANIZATION ( #87, #59 ) ;
#18 = VERTEX_POINT ( 'NONE', #91 ) ;
#19 = CARTESIAN_POINT ( 'NONE',  ( 0.0000000000000000000, 0.0000000000000000000, -2.000000000000000000 ) ) ;
#20 = LINE ( 'NONE', #90, #163 ) ;
#21 = CARTESIAN_POINT ( 'NONE',  ( 0.0000000000000000000, 0.0000000000000000000, 0.0000000000000000000 ) ) ;
#22 = DIRECTION ( 'NONE',  ( 0.0000000000000000000, 0.0000000000000000000, -1.000000000000000000 ) ) ;
#23 = DIRECTION ( 'NONE',  ( 1.000000000000000000, 0.0000000000000000000, 0.0000000000000000000 ) ) ;
#24 = ORIENTED_EDGE ( 'NONE', *, *, #113, .F. ) ;
#25 = CALENDAR_DATE ( 2017, 1, 2 ) ;
#26 = DATE_AND_TIME ( #4, #94 ) ;
#27 = ORIENTED_EDGE ( 'NONE', *, *, #105, .T. ) ;
#28 = APPLICATION_PROTOCOL_DEFINITION ( 'international standard', 'config_control_design', 1994, #124 ) ;
#29 = FACE_OUTER_BOUND ( 'NONE', #50, .T. ) ;
#30 = DATE_AND_TIME ( #48, #34 ) ;
#31 = CC_DESIGN_APPROVAL ( #56, ( #45 ) ) ;
#32 = LINE ( 'NONE', #168, #140 ) ;
#33 = CARTESIAN_POINT ( 'NONE',  ( 0.0000000000000000000, 0.0000000000000000000, 0.0000000000000000000 ) ) ;
#34 = LOCAL_TIME ( 11, 22, 1.000000000000000000, #74 ) ;
#35 = DIRECTION ( 'NONE',  ( -0.0000000000000000000, -0.0000000000000000000, 1.000000000000000000 ) ) ;
#36 = CARTESIAN_POINT ( 'NONE',  ( -10.00000000000000000, 1.224646799147353300E-015, -2.000000000000000000 ) ) ;
#37 = ADVANCED_FACE ( 'NONE', ( #77 ), #108, .F. ) ;
#38 = CARTESIAN_POINT ( 'NONE',  ( 0.0000000000000000000, 0.0000000000000000000, -2.000000000000000000 ) ) ;
#39 = AXIS2_PLACEMENT_3D ( 'NONE', #33, #142, #157 ) ;
#40 = AXIS2_PLACEMENT_3D ( 'NONE', #38, #49, #146 ) ;
#41 = PERSON_AND_ORGANIZATION ( #87, #59 ) ;
#42 = ORIENTED_EDGE ( 'NONE', *, *, #9, .T. ) ;
#43 = LOCAL_TIME ( 11, 22, 1.000000000000000000, #76 ) ;
#44 = LOCAL_TIME ( 11, 22, 1.000000000000000000, #16 ) ;
#45 = PRODUCT_DEFINITION ( 'UNKNOWN', '', #130, #65 ) ;
#46 = DIRECTION ( 'NONE',  ( 1.000000000000000000, 0.0000000000000000000, 0.0000000000000000000 ) ) ;
#47 = CLOSED_SHELL ( 'NONE', ( #60, #126, #93, #37 ) ) ;
#48 = CALENDAR_DATE ( 2017, 1, 2 ) ;
#49 = DIRECTION ( 'NONE',  ( -0.0000000000000000000, -0.0000000000000000000, 1.000000000000000000 ) ) ;
#50 = EDGE_LOOP ( 'NONE', ( #129, #42, #27, #98 ) ) ;
#51 = EDGE_CURVE ( 'NONE', #169, #134, #32, .T. ) ;
#52 = CALENDAR_DATE ( 2017, 1, 2 ) ;
#53 = DATE_TIME_ROLE ( 'creation_date' ) ;
#54 = CC_DESIGN_PERSON_AND_ORGANIZATION_ASSIGNMENT ( #100, #111, ( #116 ) ) ;
#55 = CC_DESIGN_PERSON_AND_ORGANIZATION_ASSIGNMENT ( #148, #136, ( #110 ) ) ;
#56 = APPROVAL ( #102, 'UNSPECIFIED' ) ;
#57 = CIRCLE ( 'NONE', #40, 10.00000000000000000 ) ;
#58 = EDGE_LOOP ( 'NONE', ( #1, #107 ) ) ;
#59 = ORGANIZATION ( 'UNSPECIFIED', 'UNSPECIFIED', '' ) ;
#60 = ADVANCED_FACE ( 'NONE', ( #82 ), #167, .T. ) ;
#61 = FACE_OUTER_BOUND ( 'NONE', #125, .T. ) ;
#62 = CARTESIAN_POINT ( 'NONE',  ( 0.0000000000000000000, 10.00000000000000000, -2.000000000000000900 ) ) ;
#63 = PERSON_AND_ORGANIZATION ( #87, #59 ) ;
#64 = CARTESIAN_POINT ( 'NONE',  ( 0.0000000000000000000, 0.0000000000000000000, 0.0000000000000000000 ) ) ;
#65 = DESIGN_CONTEXT ( 'detailed design', #124, 'design' ) ;
#66 = APPROVAL ( #173, 'UNSPECIFIED' ) ;
#67 = MECHANICAL_CONTEXT ( 'NONE', #138, 'mechanical' ) ;
#68 = ORIENTED_EDGE ( 'NONE', *, *, #105, .F. ) ;
#69 = APPROVAL_PERSON_ORGANIZATION ( #141, #66, #15 ) ;
#70 = CC_DESIGN_PERSON_AND_ORGANIZATION_ASSIGNMENT ( #2, #12, ( #45 ) ) ;
#71 = SHAPE_DEFINITION_REPRESENTATION ( #86, #103 ) ;
#72 = APPROVAL_ROLE ( '' ) ;
#73 = DIRECTION ( 'NONE',  ( 1.000000000000000000, 0.0000000000000000000, 0.0000000000000000000 ) ) ;
#74 = COORDINATED_UNIVERSAL_TIME_OFFSET ( 5, 0, .BEHIND. ) ;
#75 = CC_DESIGN_SECURITY_CLASSIFICATION ( #116, ( #130 ) ) ;
#76 = COORDINATED_UNIVERSAL_TIME_OFFSET ( 5, 0, .BEHIND. ) ;
#77 = FACE_OUTER_BOUND ( 'NONE', #58, .T. ) ;
#78 = DIRECTION ( 'NONE',  ( -0.0000000000000000000, -0.0000000000000000000, 1.000000000000000000 ) ) ;
#79 = APPROVAL_DATE_TIME ( #83, #56 ) ;
#80 = CARTESIAN_POINT ( 'NONE',  ( 0.0000000000000000000, 0.0000000000000000000, 0.0000000000000000000 ) ) ;
#81 = APPROVAL_DATE_TIME ( #88, #149 ) ;
#82 = FACE_OUTER_BOUND ( 'NONE', #3, .T. ) ;
#83 = DATE_AND_TIME ( #52, #44 ) ;
#84 = COORDINATED_UNIVERSAL_TIME_OFFSET ( 5, 0, .BEHIND. ) ;
#85 =( NAMED_UNIT ( * ) PLANE_ANGLE_UNIT ( ) SI_UNIT ( $, .RADIAN. ) );
#86 = PRODUCT_DEFINITION_SHAPE ( 'NONE', 'NONE',  #45 ) ;
#87 = PERSON ( 'UNSPECIFIED', 'UNSPECIFIED', 'UNSPECIFIED', ('UNSPECIFIED'), ('UNSPECIFIED'), ('UNSPECIFIED') ) ;
#88 = DATE_AND_TIME ( #162, #120 ) ;
#89 = EDGE_CURVE ( 'NONE', #134, #166, #172, .T. ) ;
#90 = CARTESIAN_POINT ( 'NONE',  ( 10.00000000000000000, 0.0000000000000000000, 0.0000000000000000000 ) ) ;
#91 = CARTESIAN_POINT ( 'NONE',  ( 10.00000000000000000, 0.0000000000000000000, -2.000000000000000000 ) ) ;
#92 = DIRECTION ( 'NONE',  ( 0.0000000000000000000, -0.0000000000000000000, 1.000000000000000000 ) ) ;
#93 = ADVANCED_FACE ( 'NONE', ( #29 ), #106, .T. ) ;
#94 = LOCAL_TIME ( 11, 22, 1.000000000000000000, #164 ) ;
#95 = UNCERTAINTY_MEASURE_WITH_UNIT (LENGTH_MEASURE( 1.000000000000000100E-005 ), #14, 'distance_accuracy_value', 'NONE');
#96 = CIRCLE ( 'NONE', #39, 10.00000000000000000 ) ;
#97 = CC_DESIGN_DATE_AND_TIME_ASSIGNMENT ( #30, #53, ( #45 ) ) ;
#98 = ORIENTED_EDGE ( 'NONE', *, *, #89, .F. ) ;
#99 = CC_DESIGN_PERSON_AND_ORGANIZATION_ASSIGNMENT ( #41, #150, ( #130 ) ) ;
#100 = PERSON_AND_ORGANIZATION ( #87, #59 ) ;
#101 = APPLICATION_PROTOCOL_DEFINITION ( 'international standard', 'config_control_design', 1994, #138 ) ;
#102 = APPROVAL_STATUS ( 'not_yet_approved' ) ;
#103 = ADVANCED_BREP_SHAPE_REPRESENTATION ( 'Web Model 88429', ( #13, #153 ), #133 ) ;
#104 = PERSON_AND_ORGANIZATION_ROLE ( 'creator' ) ;
#105 = EDGE_CURVE ( 'NONE', #18, #166, #20, .T. ) ;
#106 = CYLINDRICAL_SURFACE ( 'NONE', #115, 10.00000000000000000 ) ;
#107 = ORIENTED_EDGE ( 'NONE', *, *, #9, .F. ) ;
#108 = PLANE ( 'NONE',  #10 ) ;
#109 = ORIENTED_EDGE ( 'NONE', *, *, #113, .T. ) ;
#110 = PRODUCT ( 'Web Model 88429', 'Web Model 88429', '', ( #67 ) ) ;
#111 = PERSON_AND_ORGANIZATION_ROLE ( 'classification_officer' ) ;
#112 = APPROVAL_STATUS ( 'not_yet_approved' ) ;
#113 = EDGE_CURVE ( 'NONE', #166, #134, #96, .T. ) ;
#114 = PERSON_AND_ORGANIZATION ( #87, #59 ) ;
#115 = AXIS2_PLACEMENT_3D ( 'NONE', #80, #144, #23 ) ;
#116 = SECURITY_CLASSIFICATION ( '', '', #11 ) ;
#117 = APPROVAL_PERSON_ORGANIZATION ( #114, #56, #72 ) ;
#118 = DIRECTION ( 'NONE',  ( 1.000000000000000000, 0.0000000000000000000, 0.0000000000000000000 ) ) ;
#119 = CARTESIAN_POINT ( 'NONE',  ( 10.00000000000000000, 0.0000000000000000000, 0.0000000000000000000 ) ) ;
#120 = LOCAL_TIME ( 11, 22, 1.000000000000000000, #84 ) ;
#121 = CARTESIAN_POINT ( 'NONE',  ( -10.00000000000000000, 1.224646799147353300E-015, 0.0000000000000000000 ) ) ;
#122 = AXIS2_PLACEMENT_3D ( 'NONE', #21, #170, #118 ) ;
#123 = DATE_TIME_ROLE ( 'classification_date' ) ;
#124 = APPLICATION_CONTEXT ( 'configuration controlled 3d designs of mechanical parts and assemblies' ) ;
#125 = EDGE_LOOP ( 'NONE', ( #109, #160 ) ) ;
#126 = ADVANCED_FACE ( 'NONE', ( #61 ), #7, .F. ) ;
#127 = AXIS2_PLACEMENT_3D ( 'NONE', #143, #6, #5 ) ;
#128 = CIRCLE ( 'NONE', #139, 10.00000000000000000 ) ;
#129 = ORIENTED_EDGE ( 'NONE', *, *, #51, .F. ) ;
#130 = PRODUCT_DEFINITION_FORMATION_WITH_SPECIFIED_SOURCE ( 'ANY', '', #110, .NOT_KNOWN. ) ;
#131 = DIRECTION ( 'NONE',  ( 1.000000000000000000, 0.0000000000000000000, 0.0000000000000000000 ) ) ;
#132 = CC_DESIGN_DATE_AND_TIME_ASSIGNMENT ( #171, #123, ( #116 ) ) ;
#133 =( GEOMETRIC_REPRESENTATION_CONTEXT ( 3 ) GLOBAL_UNCERTAINTY_ASSIGNED_CONTEXT ( ( #95 ) ) GLOBAL_UNIT_ASSIGNED_CONTEXT ( ( #14, #85, #174 ) ) REPRESENTATION_CONTEXT ( 'NONE', 'WORKASPACE' ) );
#134 = VERTEX_POINT ( 'NONE', #121 ) ;
#135 = APPROVAL_PERSON_ORGANIZATION ( #17, #149, #159 ) ;
#136 = PERSON_AND_ORGANIZATION_ROLE ( 'design_owner' ) ;
#137 = ORIENTED_EDGE ( 'NONE', *, *, #156, .T. ) ;
#138 = APPLICATION_CONTEXT ( 'configuration controlled 3d designs of mechanical parts and assemblies' ) ;
#139 = AXIS2_PLACEMENT_3D ( 'NONE', #19, #158, #131 ) ;
#140 = VECTOR ( 'NONE', #78, 1000.000000000000000 ) ;
#141 = PERSON_AND_ORGANIZATION ( #87, #59 ) ;
#142 = DIRECTION ( 'NONE',  ( -0.0000000000000000000, -0.0000000000000000000, 1.000000000000000000 ) ) ;
#143 = CARTESIAN_POINT ( 'NONE',  ( 0.0000000000000000000, 0.0000000000000000000, 0.0000000000000000000 ) ) ;
#144 = DIRECTION ( 'NONE',  ( -0.0000000000000000000, -0.0000000000000000000, 1.000000000000000000 ) ) ;
#145 = DIRECTION ( 'NONE',  ( 0.0000000000000000000, 0.0000000000000000000, 1.000000000000000000 ) ) ;
#146 = DIRECTION ( 'NONE',  ( 1.000000000000000000, 0.0000000000000000000, 0.0000000000000000000 ) ) ;
#147 = ORIENTED_EDGE ( 'NONE', *, *, #51, .T. ) ;
#148 = PERSON_AND_ORGANIZATION ( #87, #59 ) ;
#149 = APPROVAL ( #112, 'UNSPECIFIED' ) ;
#150 = PERSON_AND_ORGANIZATION_ROLE ( 'design_supplier' ) ;
#151 = AXIS2_PLACEMENT_3D ( 'NONE', #8, #22, #154 ) ;
#152 = PRODUCT_RELATED_PRODUCT_CATEGORY ( 'detail', '', ( #110 ) ) ;
#153 = AXIS2_PLACEMENT_3D ( 'NONE', #64, #145, #73 ) ;
#154 = DIRECTION ( 'NONE',  ( -1.000000000000000000, 0.0000000000000000000, -0.0000000000000000000 ) ) ;
#155 = CC_DESIGN_PERSON_AND_ORGANIZATION_ASSIGNMENT ( #63, #104, ( #130 ) ) ;
#156 = EDGE_CURVE ( 'NONE', #18, #169, #57, .T. ) ;
#157 = DIRECTION ( 'NONE',  ( 1.000000000000000000, 0.0000000000000000000, 0.0000000000000000000 ) ) ;
#158 = DIRECTION ( 'NONE',  ( -0.0000000000000000000, -0.0000000000000000000, 1.000000000000000000 ) ) ;
#159 = APPROVAL_ROLE ( '' ) ;
#160 = ORIENTED_EDGE ( 'NONE', *, *, #89, .T. ) ;
#161 = APPROVAL_DATE_TIME ( #26, #66 ) ;
#162 = CALENDAR_DATE ( 2017, 1, 2 ) ;
#163 = VECTOR ( 'NONE', #35, 1000.000000000000000 ) ;
#164 = COORDINATED_UNIVERSAL_TIME_OFFSET ( 5, 0, .BEHIND. ) ;
#165 = CC_DESIGN_APPROVAL ( #149, ( #130 ) ) ;
#166 = VERTEX_POINT ( 'NONE', #119 ) ;
#167 = CYLINDRICAL_SURFACE ( 'NONE', #127, 10.00000000000000000 ) ;
#168 = CARTESIAN_POINT ( 'NONE',  ( -10.00000000000000000, 1.224646799147353300E-015, 0.0000000000000000000 ) ) ;
#169 = VERTEX_POINT ( 'NONE', #36 ) ;
#170 = DIRECTION ( 'NONE',  ( -0.0000000000000000000, -0.0000000000000000000, 1.000000000000000000 ) ) ;
#171 = DATE_AND_TIME ( #25, #43 ) ;
#172 = CIRCLE ( 'NONE', #122, 10.00000000000000000 ) ;
#173 = APPROVAL_STATUS ( 'not_yet_approved' ) ;
#174 =( NAMED_UNIT ( * ) SI_UNIT ( $, .STERADIAN. ) SOLID_ANGLE_UNIT ( ) );
#175 = CC_DESIGN_APPROVAL ( #66, ( #116 ) ) ;
ENDSEC;
END-ISO-10303-21;
