ISO-10303-21;
HEADER;
FILE_DESCRIPTION (( 'STEP AP203' ),
    '1' );
FILE_NAME ('Web Model 68373.STEP',
    '2017-01-31T19:50:46',
    ( '' ),
    ( '' ),
    'SwSTEP 2.0',
    'SolidWorks 2016',
    '' );
FILE_SCHEMA (( 'CONFIG_CONTROL_DESIGN' ));
ENDSEC;

DATA;
#1 = ORIENTED_EDGE ( 'NONE', *, *, #203, .T. ) ;
#2 = CC_DESIGN_PERSON_AND_ORGANIZATION_ASSIGNMENT ( #52, #220, ( #175 ) ) ;
#3 = LOCAL_TIME ( 14, 50, 46.00000000000000000, #151 ) ;
#4 = CARTESIAN_POINT ( 'NONE',  ( 17.49999999999999600, 17.50000000000000000, 3.000000000000000000 ) ) ;
#5 = FACE_OUTER_BOUND ( 'NONE', #109, .T. ) ;
#6 = APPROVAL ( #87, 'UNSPECIFIED' ) ;
#7 = DIRECTION ( 'NONE',  ( -1.000000000000000000, -1.982541115402065100E-016, 0.0000000000000000000 ) ) ;
#8 = ORIENTED_EDGE ( 'NONE', *, *, #110, .T. ) ;
#9 = CC_DESIGN_APPROVAL ( #236, ( #224 ) ) ;
#10 = DIRECTION ( 'NONE',  ( 1.000000000000000000, 0.0000000000000000000, 0.0000000000000000000 ) ) ;
#11 = APPROVAL_ROLE ( '' ) ;
#12 = APPROVAL_DATE_TIME ( #91, #236 ) ;
#13 = LINE ( 'NONE', #26, #92 ) ;
#14 = PERSON_AND_ORGANIZATION_ROLE ( 'design_owner' ) ;
#15 = DATE_TIME_ROLE ( 'creation_date' ) ;
#16 = COORDINATED_UNIVERSAL_TIME_OFFSET ( 5, 0, .BEHIND. ) ;
#17 = VECTOR ( 'NONE', #155, 1000.000000000000000 ) ;
#18 = ADVANCED_FACE ( 'NONE', ( #93 ), #29, .F. ) ;
#19 = ORIENTED_EDGE ( 'NONE', *, *, #223, .T. ) ;
#20 = APPROVAL_DATE_TIME ( #225, #73 ) ;
#21 = LINE ( 'NONE', #139, #133 ) ;
#22 = ORIENTED_EDGE ( 'NONE', *, *, #110, .F. ) ;
#23 = CC_DESIGN_PERSON_AND_ORGANIZATION_ASSIGNMENT ( #199, #34, ( #224 ) ) ;
#24 = ORIENTED_EDGE ( 'NONE', *, *, #27, .T. ) ;
#25 = CARTESIAN_POINT ( 'NONE',  ( 17.50000000000000400, -17.50000000000000400, 0.0000000000000000000 ) ) ;
#26 = CARTESIAN_POINT ( 'NONE',  ( 17.49999999999999600, 17.50000000000000000, 0.0000000000000000000 ) ) ;
#27 = EDGE_CURVE ( 'NONE', #227, #163, #117, .T. ) ;
#28 = FACE_OUTER_BOUND ( 'NONE', #66, .T. ) ;
#29 = PLANE ( 'NONE',  #45 ) ;
#30 = CARTESIAN_POINT ( 'NONE',  ( -17.49999999999999600, -17.50000000000000700, 3.000000000000000000 ) ) ;
#31 = APPROVAL_PERSON_ORGANIZATION ( #160, #236, #11 ) ;
#32 = CARTESIAN_POINT ( 'NONE',  ( 17.50000000000000400, -17.50000000000000400, 0.0000000000000000000 ) ) ;
#33 = CC_DESIGN_DATE_AND_TIME_ASSIGNMENT ( #56, #70, ( #175 ) ) ;
#34 = PERSON_AND_ORGANIZATION_ROLE ( 'creator' ) ;
#35 = PLANE ( 'NONE',  #98 ) ;
#36 = DIRECTION ( 'NONE',  ( -1.000000000000000000, 0.0000000000000000000, -0.0000000000000000000 ) ) ;
#37 = LOCAL_TIME ( 14, 50, 46.00000000000000000, #46 ) ;
#38 = ADVANCED_FACE ( 'NONE', ( #49 ), #81, .T. ) ;
#39 = ORIENTED_EDGE ( 'NONE', *, *, #42, .F. ) ;
#40 = APPROVAL_ROLE ( '' ) ;
#41 = PRODUCT_DEFINITION_FORMATION_WITH_SPECIFIED_SOURCE ( 'ANY', '', #184, .NOT_KNOWN. ) ;
#42 = EDGE_CURVE ( 'NONE', #227, #116, #113, .T. ) ;
#43 = AXIS2_PLACEMENT_3D ( 'NONE', #30, #128, #36 ) ;
#44 = ORIENTED_EDGE ( 'NONE', *, *, #53, .F. ) ;
#45 = AXIS2_PLACEMENT_3D ( 'NONE', #77, #183, #122 ) ;
#46 = COORDINATED_UNIVERSAL_TIME_OFFSET ( 5, 0, .BEHIND. ) ;
#47 = DIRECTION ( 'NONE',  ( -1.000000000000000000, -1.982541115402065100E-016, 0.0000000000000000000 ) ) ;
#48 = PERSON_AND_ORGANIZATION ( #154, #147 ) ;
#49 = FACE_OUTER_BOUND ( 'NONE', #172, .T. ) ;
#50 = ORIENTED_EDGE ( 'NONE', *, *, #219, .T. ) ;
#51 = PLANE ( 'NONE',  #237 ) ;
#52 = PERSON_AND_ORGANIZATION ( #154, #147 ) ;
#53 = EDGE_CURVE ( 'NONE', #208, #145, #62, .T. ) ;
#54 = CARTESIAN_POINT ( 'NONE',  ( 17.49999999999999600, 17.50000000000000000, 3.000000000000000000 ) ) ;
#55 = DESIGN_CONTEXT ( 'detailed design', #103, 'design' ) ;
#56 = DATE_AND_TIME ( #107, #3 ) ;
#57 = LOCAL_TIME ( 14, 50, 46.00000000000000000, #16 ) ;
#58 = VERTEX_POINT ( 'NONE', #99 ) ;
#59 = APPROVAL_PERSON_ORGANIZATION ( #204, #6, #40 ) ;
#60 = CARTESIAN_POINT ( 'NONE',  ( 17.50000000000000400, -17.50000000000000400, 3.000000000000000000 ) ) ;
#61 = VECTOR ( 'NONE', #7, 1000.000000000000000 ) ;
#62 = LINE ( 'NONE', #206, #102 ) ;
#63 = APPLICATION_PROTOCOL_DEFINITION ( 'international standard', 'config_control_design', 1994, #103 ) ;
#64 = DIRECTION ( 'NONE',  ( 9.912705577010325500E-017, -1.000000000000000000, 0.0000000000000000000 ) ) ;
#65 = DIRECTION ( 'NONE',  ( 1.000000000000000000, 9.912705577010325500E-017, -0.0000000000000000000 ) ) ;
#66 = EDGE_LOOP ( 'NONE', ( #19, #1, #202, #152 ) ) ;
#67 = CARTESIAN_POINT ( 'NONE',  ( 17.49999999999999600, 17.50000000000000000, 3.000000000000000000 ) ) ;
#68 = SECURITY_CLASSIFICATION_LEVEL ( 'unclassified' ) ;
#69 = CALENDAR_DATE ( 2017, 31, 1 ) ;
#70 = DATE_TIME_ROLE ( 'classification_date' ) ;
#71 = VECTOR ( 'NONE', #187, 1000.000000000000000 ) ;
#72 = PERSON_AND_ORGANIZATION_ROLE ( 'creator' ) ;
#73 = APPROVAL ( #143, 'UNSPECIFIED' ) ;
#74 = VERTEX_POINT ( 'NONE', #25 ) ;
#75 = SHAPE_DEFINITION_REPRESENTATION ( #182, #212 ) ;
#76 = DIRECTION ( 'NONE',  ( 0.0000000000000000000, 0.0000000000000000000, -1.000000000000000000 ) ) ;
#77 = CARTESIAN_POINT ( 'NONE',  ( 17.49999999999999600, 17.50000000000000000, 3.000000000000000000 ) ) ;
#78 = DIRECTION ( 'NONE',  ( -1.000000000000000000, 0.0000000000000000000, -0.0000000000000000000 ) ) ;
#79 = ORIENTED_EDGE ( 'NONE', *, *, #27, .F. ) ;
#80 = CARTESIAN_POINT ( 'NONE',  ( -17.49999999999999600, -17.50000000000000700, 0.0000000000000000000 ) ) ;
#81 = PLANE ( 'NONE',  #168 ) ;
#82 = VECTOR ( 'NONE', #65, 1000.000000000000000 ) ;
#83 = CARTESIAN_POINT ( 'NONE',  ( -17.50000000000000000, 17.49999999999999600, 0.0000000000000000000 ) ) ;
#84 = CARTESIAN_POINT ( 'NONE',  ( -17.49999999999999600, -17.50000000000000700, 0.0000000000000000000 ) ) ;
#85 = DIRECTION ( 'NONE',  ( 0.0000000000000000000, 0.0000000000000000000, 1.000000000000000000 ) ) ;
#86 = ORIENTED_EDGE ( 'NONE', *, *, #203, .F. ) ;
#87 = APPROVAL_STATUS ( 'not_yet_approved' ) ;
#88 = APPROVAL_ROLE ( '' ) ;
#89 = CC_DESIGN_PERSON_AND_ORGANIZATION_ASSIGNMENT ( #48, #14, ( #184 ) ) ;
#90 = PERSON_AND_ORGANIZATION ( #154, #147 ) ;
#91 = DATE_AND_TIME ( #130, #120 ) ;
#92 = VECTOR ( 'NONE', #164, 1000.000000000000000 ) ;
#93 = FACE_OUTER_BOUND ( 'NONE', #132, .T. ) ;
#94 = EDGE_CURVE ( 'NONE', #74, #163, #13, .T. ) ;
#95 = CC_DESIGN_APPROVAL ( #73, ( #41 ) ) ;
#96 = CARTESIAN_POINT ( 'NONE',  ( -17.50000000000000000, 17.49999999999999600, 3.000000000000000000 ) ) ;
#97 = LINE ( 'NONE', #32, #82 ) ;
#98 = AXIS2_PLACEMENT_3D ( 'NONE', #54, #126, #153 ) ;
#99 = CARTESIAN_POINT ( 'NONE',  ( 17.50000000000000400, -17.50000000000000400, 3.000000000000000000 ) ) ;
#100 = CARTESIAN_POINT ( 'NONE',  ( -17.49999999999999600, -17.50000000000000700, 3.000000000000000000 ) ) ;
#101 = PLANE ( 'NONE',  #200 ) ;
#102 = VECTOR ( 'NONE', #136, 1000.000000000000000 ) ;
#103 = APPLICATION_CONTEXT ( 'configuration controlled 3d designs of mechanical parts and assemblies' ) ;
#104 = DATE_AND_TIME ( #69, #37 ) ;
#105 = VECTOR ( 'NONE', #47, 1000.000000000000000 ) ;
#106 = ADVANCED_FACE ( 'NONE', ( #235 ), #101, .F. ) ;
#107 = CALENDAR_DATE ( 2017, 31, 1 ) ;
#108 = EDGE_LOOP ( 'NONE', ( #222, #149, #86, #50 ) ) ;
#109 = EDGE_LOOP ( 'NONE', ( #142, #195, #180, #196 ) ) ;
#110 = EDGE_CURVE ( 'NONE', #163, #208, #185, .T. ) ;
#111 = CC_DESIGN_PERSON_AND_ORGANIZATION_ASSIGNMENT ( #90, #72, ( #41 ) ) ;
#112 = APPROVAL_PERSON_ORGANIZATION ( #114, #73, #88 ) ;
#113 = LINE ( 'NONE', #207, #61 ) ;
#114 = PERSON_AND_ORGANIZATION ( #154, #147 ) ;
#115 = FACE_OUTER_BOUND ( 'NONE', #159, .T. ) ;
#116 = VERTEX_POINT ( 'NONE', #162 ) ;
#117 = LINE ( 'NONE', #4, #221 ) ;
#118 = DIRECTION ( 'NONE',  ( -9.912705577010325500E-017, 1.000000000000000000, 0.0000000000000000000 ) ) ;
#119 = DIRECTION ( 'NONE',  ( -1.000000000000000000, -9.912705577010325500E-017, 0.0000000000000000000 ) ) ;
#120 = LOCAL_TIME ( 14, 50, 46.00000000000000000, #170 ) ;
#121 = ORIENTED_EDGE ( 'NONE', *, *, #94, .T. ) ;
#122 = DIRECTION ( 'NONE',  ( 1.000000000000000000, 1.982541115402065100E-016, 0.0000000000000000000 ) ) ;
#123 = DIRECTION ( 'NONE',  ( -9.912705577010325500E-017, 1.000000000000000000, 0.0000000000000000000 ) ) ;
#124 = CC_DESIGN_PERSON_AND_ORGANIZATION_ASSIGNMENT ( #201, #198, ( #41 ) ) ;
#125 = DIRECTION ( 'NONE',  ( -0.0000000000000000000, -0.0000000000000000000, -1.000000000000000000 ) ) ;
#126 = DIRECTION ( 'NONE',  ( -1.000000000000000000, -1.982541115402065100E-016, 0.0000000000000000000 ) ) ;
#127 = CARTESIAN_POINT ( 'NONE',  ( 17.49999999999999600, 17.50000000000000000, 3.000000000000000000 ) ) ;
#128 = DIRECTION ( 'NONE',  ( 0.0000000000000000000, 0.0000000000000000000, -1.000000000000000000 ) ) ;
#129 = ADVANCED_FACE ( 'NONE', ( #5 ), #51, .F. ) ;
#130 = CALENDAR_DATE ( 2017, 31, 1 ) ;
#131 = LINE ( 'NONE', #226, #135 ) ;
#132 = EDGE_LOOP ( 'NONE', ( #8, #215, #39, #24 ) ) ;
#133 = VECTOR ( 'NONE', #64, 1000.000000000000000 ) ;
#134 = VECTOR ( 'NONE', #233, 1000.000000000000000 ) ;
#135 = VECTOR ( 'NONE', #125, 1000.000000000000000 ) ;
#136 = DIRECTION ( 'NONE',  ( 9.912705577010325500E-017, -1.000000000000000000, 0.0000000000000000000 ) ) ;
#137 = LINE ( 'NONE', #166, #134 ) ;
#138 = PLANE ( 'NONE',  #43 ) ;
#139 = CARTESIAN_POINT ( 'NONE',  ( -17.50000000000000000, 17.49999999999999600, 3.000000000000000000 ) ) ;
#140 = MANIFOLD_SOLID_BREP ( 'Extrude1', #157 ) ;
#141 = VERTEX_POINT ( 'NONE', #100 ) ;
#142 = ORIENTED_EDGE ( 'NONE', *, *, #53, .T. ) ;
#143 = APPROVAL_STATUS ( 'not_yet_approved' ) ;
#144 = CALENDAR_DATE ( 2017, 31, 1 ) ;
#145 = VERTEX_POINT ( 'NONE', #84 ) ;
#146 = APPROVAL_DATE_TIME ( #194, #6 ) ;
#147 = ORGANIZATION ( 'UNSPECIFIED', 'UNSPECIFIED', '' ) ;
#148 = ORIENTED_EDGE ( 'NONE', *, *, #94, .F. ) ;
#149 = ORIENTED_EDGE ( 'NONE', *, *, #173, .F. ) ;
#150 = ORIENTED_EDGE ( 'NONE', *, *, #181, .F. ) ;
#151 = COORDINATED_UNIVERSAL_TIME_OFFSET ( 5, 0, .BEHIND. ) ;
#152 = ORIENTED_EDGE ( 'NONE', *, *, #42, .T. ) ;
#153 = DIRECTION ( 'NONE',  ( 1.982541115402065100E-016, -1.000000000000000000, 0.0000000000000000000 ) ) ;
#154 = PERSON ( 'UNSPECIFIED', 'UNSPECIFIED', 'UNSPECIFIED', ('UNSPECIFIED'), ('UNSPECIFIED'), ('UNSPECIFIED') ) ;
#155 = DIRECTION ( 'NONE',  ( -0.0000000000000000000, -0.0000000000000000000, -1.000000000000000000 ) ) ;
#156 = DIRECTION ( 'NONE',  ( -1.982541115402065100E-016, 1.000000000000000000, -0.0000000000000000000 ) ) ;
#157 = CLOSED_SHELL ( 'NONE', ( #129, #106, #193, #18, #174, #38 ) ) ;
#158 = LINE ( 'NONE', #127, #161 ) ;
#159 = EDGE_LOOP ( 'NONE', ( #121, #79, #150, #209 ) ) ;
#160 = PERSON_AND_ORGANIZATION ( #154, #147 ) ;
#161 = VECTOR ( 'NONE', #156, 1000.000000000000000 ) ;
#162 = CARTESIAN_POINT ( 'NONE',  ( -17.50000000000000000, 17.49999999999999600, 3.000000000000000000 ) ) ;
#163 = VERTEX_POINT ( 'NONE', #232 ) ;
#164 = DIRECTION ( 'NONE',  ( -1.982541115402065100E-016, 1.000000000000000000, -0.0000000000000000000 ) ) ;
#165 = AXIS2_PLACEMENT_3D ( 'NONE', #169, #85, #10 ) ;
#166 = CARTESIAN_POINT ( 'NONE',  ( -17.49999999999999600, -17.50000000000000700, 3.000000000000000000 ) ) ;
#167 = APPLICATION_CONTEXT ( 'configuration controlled 3d designs of mechanical parts and assemblies' ) ;
#168 = AXIS2_PLACEMENT_3D ( 'NONE', #80, #76, #78 ) ;
#169 = CARTESIAN_POINT ( 'NONE',  ( 0.0000000000000000000, 0.0000000000000000000, 0.0000000000000000000 ) ) ;
#170 = COORDINATED_UNIVERSAL_TIME_OFFSET ( 5, 0, .BEHIND. ) ;
#171 = EDGE_CURVE ( 'NONE', #116, #208, #131, .T. ) ;
#172 = EDGE_LOOP ( 'NONE', ( #44, #22, #148, #218 ) ) ;
#173 = EDGE_CURVE ( 'NONE', #58, #74, #177, .T. ) ;
#174 = ADVANCED_FACE ( 'NONE', ( #28 ), #138, .F. ) ;
#175 = SECURITY_CLASSIFICATION ( '', '', #68 ) ;
#176 = CC_DESIGN_SECURITY_CLASSIFICATION ( #175, ( #41 ) ) ;
#177 = LINE ( 'NONE', #60, #17 ) ;
#178 = UNCERTAINTY_MEASURE_WITH_UNIT (LENGTH_MEASURE( 1.000000000000000100E-005 ), #213, 'distance_accuracy_value', 'NONE');
#179 = DIRECTION ( 'NONE',  ( 1.000000000000000000, 9.912705577010325500E-017, -0.0000000000000000000 ) ) ;
#180 = ORIENTED_EDGE ( 'NONE', *, *, #223, .F. ) ;
#181 = EDGE_CURVE ( 'NONE', #58, #227, #158, .T. ) ;
#182 = PRODUCT_DEFINITION_SHAPE ( 'NONE', 'NONE',  #224 ) ;
#183 = DIRECTION ( 'NONE',  ( 1.982541115402065100E-016, -1.000000000000000000, 0.0000000000000000000 ) ) ;
#184 = PRODUCT ( 'Web Model 68373', 'Web Model 68373', '', ( #234 ) ) ;
#185 = LINE ( 'NONE', #205, #105 ) ;
#186 = CC_DESIGN_APPROVAL ( #6, ( #175 ) ) ;
#187 = DIRECTION ( 'NONE',  ( 1.000000000000000000, 9.912705577010325500E-017, -0.0000000000000000000 ) ) ;
#188 = CC_DESIGN_DATE_AND_TIME_ASSIGNMENT ( #104, #15, ( #224 ) ) ;
#189 = APPLICATION_PROTOCOL_DEFINITION ( 'international standard', 'config_control_design', 1994, #167 ) ;
#190 =( NAMED_UNIT ( * ) PLANE_ANGLE_UNIT ( ) SI_UNIT ( $, .RADIAN. ) );
#191 = COORDINATED_UNIVERSAL_TIME_OFFSET ( 5, 0, .BEHIND. ) ;
#192 = PRODUCT_RELATED_PRODUCT_CATEGORY ( 'detail', '', ( #184 ) ) ;
#193 = ADVANCED_FACE ( 'NONE', ( #115 ), #35, .F. ) ;
#194 = DATE_AND_TIME ( #144, #230 ) ;
#195 = ORIENTED_EDGE ( 'NONE', *, *, #219, .F. ) ;
#196 = ORIENTED_EDGE ( 'NONE', *, *, #171, .T. ) ;
#197 =( GEOMETRIC_REPRESENTATION_CONTEXT ( 3 ) GLOBAL_UNCERTAINTY_ASSIGNED_CONTEXT ( ( #178 ) ) GLOBAL_UNIT_ASSIGNED_CONTEXT ( ( #213, #190, #231 ) ) REPRESENTATION_CONTEXT ( 'NONE', 'WORKASPACE' ) );
#198 = PERSON_AND_ORGANIZATION_ROLE ( 'design_supplier' ) ;
#199 = PERSON_AND_ORGANIZATION ( #154, #147 ) ;
#200 = AXIS2_PLACEMENT_3D ( 'NONE', #228, #123, #119 ) ;
#201 = PERSON_AND_ORGANIZATION ( #154, #147 ) ;
#202 = ORIENTED_EDGE ( 'NONE', *, *, #181, .T. ) ;
#203 = EDGE_CURVE ( 'NONE', #141, #58, #217, .T. ) ;
#204 = PERSON_AND_ORGANIZATION ( #154, #147 ) ;
#205 = CARTESIAN_POINT ( 'NONE',  ( 17.49999999999999600, 17.50000000000000000, 0.0000000000000000000 ) ) ;
#206 = CARTESIAN_POINT ( 'NONE',  ( -17.50000000000000000, 17.49999999999999600, 0.0000000000000000000 ) ) ;
#207 = CARTESIAN_POINT ( 'NONE',  ( 17.49999999999999600, 17.50000000000000000, 3.000000000000000000 ) ) ;
#208 = VERTEX_POINT ( 'NONE', #83 ) ;
#209 = ORIENTED_EDGE ( 'NONE', *, *, #173, .T. ) ;
#210 = DIRECTION ( 'NONE',  ( -0.0000000000000000000, -0.0000000000000000000, -1.000000000000000000 ) ) ;
#211 = APPROVAL_STATUS ( 'not_yet_approved' ) ;
#212 = ADVANCED_BREP_SHAPE_REPRESENTATION ( 'Web Model 68373', ( #140, #165 ), #197 ) ;
#213 =( LENGTH_UNIT ( ) NAMED_UNIT ( * ) SI_UNIT ( .MILLI., .METRE. ) );
#214 = CALENDAR_DATE ( 2017, 31, 1 ) ;
#215 = ORIENTED_EDGE ( 'NONE', *, *, #171, .F. ) ;
#216 = CARTESIAN_POINT ( 'NONE',  ( 17.50000000000000400, -17.50000000000000400, 3.000000000000000000 ) ) ;
#217 = LINE ( 'NONE', #216, #71 ) ;
#218 = ORIENTED_EDGE ( 'NONE', *, *, #229, .F. ) ;
#219 = EDGE_CURVE ( 'NONE', #141, #145, #137, .T. ) ;
#220 = PERSON_AND_ORGANIZATION_ROLE ( 'classification_officer' ) ;
#221 = VECTOR ( 'NONE', #210, 1000.000000000000000 ) ;
#222 = ORIENTED_EDGE ( 'NONE', *, *, #229, .T. ) ;
#223 = EDGE_CURVE ( 'NONE', #116, #141, #21, .T. ) ;
#224 = PRODUCT_DEFINITION ( 'UNKNOWN', '', #41, #55 ) ;
#225 = DATE_AND_TIME ( #214, #57 ) ;
#226 = CARTESIAN_POINT ( 'NONE',  ( -17.50000000000000000, 17.49999999999999600, 3.000000000000000000 ) ) ;
#227 = VERTEX_POINT ( 'NONE', #67 ) ;
#228 = CARTESIAN_POINT ( 'NONE',  ( 17.50000000000000400, -17.50000000000000400, 3.000000000000000000 ) ) ;
#229 = EDGE_CURVE ( 'NONE', #145, #74, #97, .T. ) ;
#230 = LOCAL_TIME ( 14, 50, 46.00000000000000000, #191 ) ;
#231 =( NAMED_UNIT ( * ) SI_UNIT ( $, .STERADIAN. ) SOLID_ANGLE_UNIT ( ) );
#232 = CARTESIAN_POINT ( 'NONE',  ( 17.49999999999999600, 17.50000000000000000, 0.0000000000000000000 ) ) ;
#233 = DIRECTION ( 'NONE',  ( -0.0000000000000000000, -0.0000000000000000000, -1.000000000000000000 ) ) ;
#234 = MECHANICAL_CONTEXT ( 'NONE', #167, 'mechanical' ) ;
#235 = FACE_OUTER_BOUND ( 'NONE', #108, .T. ) ;
#236 = APPROVAL ( #211, 'UNSPECIFIED' ) ;
#237 = AXIS2_PLACEMENT_3D ( 'NONE', #96, #179, #118 ) ;
ENDSEC;
END-ISO-10303-21;
