ISO-10303-21;
HEADER;
FILE_DESCRIPTION (( 'STEP AP203' ),
    '1' );
FILE_NAME ('Web Model 32808_32808.step',
    '2018-09-04T19:03:43',
    ( '' ),
    ( '' ),
    'SwSTEP 2.0',
    'SolidWorks 2016',
    '' );
FILE_SCHEMA (( 'CONFIG_CONTROL_DESIGN' ));
ENDSEC;

DATA;
#1 = DATE_AND_TIME ( #178, #92 ) ;
#2 = SHAPE_DEFINITION_REPRESENTATION ( #176, #91 ) ;
#3 = DIRECTION ( 'NONE',  ( 0.0000000000000000000, -0.0000000000000000000, 1.000000000000000000 ) ) ;
#4 = CC_DESIGN_PERSON_AND_ORGANIZATION_ASSIGNMENT ( #71, #111, ( #22 ) ) ;
#5 = ORIENTED_EDGE ( 'NONE', *, *, #30, .T. ) ;
#6 = APPROVAL_STATUS ( 'not_yet_approved' ) ;
#7 = DIRECTION ( 'NONE',  ( 0.0000000000000000000, 1.000000000000000000, 0.0000000000000000000 ) ) ;
#8 = PERSON_AND_ORGANIZATION ( #114, #148 ) ;
#9 =( CONVERSION_BASED_UNIT ( 'INCH', #83 ) LENGTH_UNIT ( ) NAMED_UNIT ( #152 ) );
#10 = APPROVAL ( #48, 'UNSPECIFIED' ) ;
#11 = ORIENTED_EDGE ( 'NONE', *, *, #14, .F. ) ;
#12 = CALENDAR_DATE ( 2018, 4, 9 ) ;
#13 = EDGE_LOOP ( 'NONE', ( #90, #96, #75, #183 ) ) ;
#14 = EDGE_CURVE ( 'NONE', #61, #217, #84, .T. ) ;
#15 = DIRECTION ( 'NONE',  ( -0.0000000000000000000, -1.000000000000000000, -0.0000000000000000000 ) ) ;
#16 = COORDINATED_UNIVERSAL_TIME_OFFSET ( 5, 0, .BEHIND. ) ;
#17 = VECTOR ( 'NONE', #188, 39.37007874015748100 ) ;
#18 = ORIENTED_EDGE ( 'NONE', *, *, #30, .F. ) ;
#19 = CC_DESIGN_PERSON_AND_ORGANIZATION_ASSIGNMENT ( #55, #150, ( #128 ) ) ;
#20 = COORDINATED_UNIVERSAL_TIME_OFFSET ( 5, 0, .BEHIND. ) ;
#21 = DIRECTION ( 'NONE',  ( -2.731847993664263200E-016, 0.0000000000000000000, -1.000000000000000000 ) ) ;
#22 = SECURITY_CLASSIFICATION ( '', '', #227 ) ;
#23 = DATE_AND_TIME ( #117, #239 ) ;
#24 = VECTOR ( 'NONE', #15, 39.37007874015748100 ) ;
#25 = APPROVAL_PERSON_ORGANIZATION ( #222, #220, #26 ) ;
#26 = APPROVAL_ROLE ( '' ) ;
#27 = ORIENTED_EDGE ( 'NONE', *, *, #198, .F. ) ;
#28 = APPLICATION_CONTEXT ( 'configuration controlled 3d designs of mechanical parts and assemblies' ) ;
#29 = CALENDAR_DATE ( 2018, 4, 9 ) ;
#30 = EDGE_CURVE ( 'NONE', #65, #171, #154, .T. ) ;
#31 = EDGE_CURVE ( 'NONE', #217, #68, #144, .T. ) ;
#32 = DIRECTION ( 'NONE',  ( -1.000000000000000000, 0.0000000000000000000, 9.106159978880878600E-017 ) ) ;
#33 = PERSON_AND_ORGANIZATION ( #114, #148 ) ;
#34 = CARTESIAN_POINT ( 'NONE',  ( -6.000000000000000900, 0.01499999999999999900, 6.000000000000003600 ) ) ;
#35 =( GEOMETRIC_REPRESENTATION_CONTEXT ( 3 ) GLOBAL_UNCERTAINTY_ASSIGNED_CONTEXT ( ( #207 ) ) GLOBAL_UNIT_ASSIGNED_CONTEXT ( ( #9, #79, #202 ) ) REPRESENTATION_CONTEXT ( 'NONE', 'WORKASPACE' ) );
#36 = COORDINATED_UNIVERSAL_TIME_OFFSET ( 5, 0, .BEHIND. ) ;
#37 = LINE ( 'NONE', #203, #24 ) ;
#38 = DIRECTION ( 'NONE',  ( -0.0000000000000000000, -1.000000000000000000, -0.0000000000000000000 ) ) ;
#39 = CC_DESIGN_SECURITY_CLASSIFICATION ( #22, ( #229 ) ) ;
#40 = EDGE_LOOP ( 'NONE', ( #66, #213, #5, #168 ) ) ;
#41 = DATE_TIME_ROLE ( 'classification_date' ) ;
#42 = DIRECTION ( 'NONE',  ( 0.0000000000000000000, 0.0000000000000000000, 1.000000000000000000 ) ) ;
#43 = DESIGN_CONTEXT ( 'detailed design', #28, 'design' ) ;
#44 = DIRECTION ( 'NONE',  ( 0.0000000000000000000, -0.0000000000000000000, 1.000000000000000000 ) ) ;
#45 = CC_DESIGN_PERSON_AND_ORGANIZATION_ASSIGNMENT ( #8, #175, ( #229 ) ) ;
#46 = EDGE_LOOP ( 'NONE', ( #127, #95, #18, #124 ) ) ;
#47 = EDGE_CURVE ( 'NONE', #65, #206, #37, .T. ) ;
#48 = APPROVAL_STATUS ( 'not_yet_approved' ) ;
#49 = FACE_OUTER_BOUND ( 'NONE', #163, .T. ) ;
#50 = PERSON_AND_ORGANIZATION ( #114, #148 ) ;
#51 = LINE ( 'NONE', #232, #160 ) ;
#52 = FACE_OUTER_BOUND ( 'NONE', #13, .T. ) ;
#53 = AXIS2_PLACEMENT_3D ( 'NONE', #58, #21, #70 ) ;
#54 = PLANE ( 'NONE',  #218 ) ;
#55 = PERSON_AND_ORGANIZATION ( #114, #148 ) ;
#56 = FACE_OUTER_BOUND ( 'NONE', #174, .T. ) ;
#57 = DIRECTION ( 'NONE',  ( -0.0000000000000000000, -0.0000000000000000000, 1.000000000000000000 ) ) ;
#58 = CARTESIAN_POINT ( 'NONE',  ( 6.000000000000000900, 0.01499999999999999900, 6.000000000000000900 ) ) ;
#59 = PLANE ( 'NONE',  #76 ) ;
#60 = CALENDAR_DATE ( 2018, 4, 9 ) ;
#61 = VERTEX_POINT ( 'NONE', #123 ) ;
#62 = CARTESIAN_POINT ( 'NONE',  ( 0.0000000000000000000, 0.01499999999999999900, 0.0000000000000000000 ) ) ;
#63 = ORIENTED_EDGE ( 'NONE', *, *, #81, .F. ) ;
#64 = DATE_AND_TIME ( #29, #224 ) ;
#65 = VERTEX_POINT ( 'NONE', #101 ) ;
#66 = ORIENTED_EDGE ( 'NONE', *, *, #181, .T. ) ;
#67 = VECTOR ( 'NONE', #125, 39.37007874015748100 ) ;
#68 = VERTEX_POINT ( 'NONE', #238 ) ;
#69 = DIRECTION ( 'NONE',  ( 0.0000000000000000000, 0.0000000000000000000, -1.000000000000000000 ) ) ;
#70 = DIRECTION ( 'NONE',  ( -1.000000000000000000, 0.0000000000000000000, 2.731847993664263200E-016 ) ) ;
#71 = PERSON_AND_ORGANIZATION ( #114, #148 ) ;
#72 = ORIENTED_EDGE ( 'NONE', *, *, #31, .T. ) ;
#73 = DIRECTION ( 'NONE',  ( 0.0000000000000000000, 0.0000000000000000000, -1.000000000000000000 ) ) ;
#74 = CARTESIAN_POINT ( 'NONE',  ( 6.000000000000000900, 0.0000000000000000000, 6.000000000000000900 ) ) ;
#75 = ORIENTED_EDGE ( 'NONE', *, *, #106, .F. ) ;
#76 = AXIS2_PLACEMENT_3D ( 'NONE', #107, #212, #73 ) ;
#77 = DIRECTION ( 'NONE',  ( 1.000000000000000000, 0.0000000000000000000, -9.106159978880877400E-017 ) ) ;
#78 = CARTESIAN_POINT ( 'NONE',  ( -6.000000000000000900, 0.0000000000000000000, -5.999999999999999100 ) ) ;
#79 =( NAMED_UNIT ( * ) PLANE_ANGLE_UNIT ( ) SI_UNIT ( $, .RADIAN. ) );
#80 = COORDINATED_UNIVERSAL_TIME_OFFSET ( 5, 0, .BEHIND. ) ;
#81 = EDGE_CURVE ( 'NONE', #171, #61, #234, .T. ) ;
#82 = DIRECTION ( 'NONE',  ( -0.0000000000000000000, -1.000000000000000000, -0.0000000000000000000 ) ) ;
#83 = LENGTH_MEASURE_WITH_UNIT ( LENGTH_MEASURE( 0.02539999999999999900 ), #115 );
#84 = LINE ( 'NONE', #184, #189 ) ;
#85 = DIRECTION ( 'NONE',  ( 1.000000000000000000, -0.0000000000000000000, -2.731847993664263200E-016 ) ) ;
#86 = CC_DESIGN_PERSON_AND_ORGANIZATION_ASSIGNMENT ( #170, #116, ( #195 ) ) ;
#87 = ORIENTED_EDGE ( 'NONE', *, *, #142, .F. ) ;
#88 = CARTESIAN_POINT ( 'NONE',  ( 6.000000000000000900, 0.01499999999999999900, -6.000000000000000900 ) ) ;
#89 = PLANE ( 'NONE',  #185 ) ;
#90 = ORIENTED_EDGE ( 'NONE', *, *, #98, .T. ) ;
#91 = ADVANCED_BREP_SHAPE_REPRESENTATION ( 'Web Model 32808_32808', ( #215, #100 ), #35 ) ;
#92 = LOCAL_TIME ( 15, 3, 43.00000000000000000, #80 ) ;
#93 = VECTOR ( 'NONE', #57, 39.37007874015748100 ) ;
#94 = APPLICATION_PROTOCOL_DEFINITION ( 'international standard', 'config_control_design', 1994, #28 ) ;
#95 = ORIENTED_EDGE ( 'NONE', *, *, #120, .F. ) ;
#96 = ORIENTED_EDGE ( 'NONE', *, *, #47, .F. ) ;
#97 = CC_DESIGN_APPROVAL ( #172, ( #229 ) ) ;
#98 = EDGE_CURVE ( 'NONE', #68, #206, #240, .T. ) ;
#99 = APPROVAL_DATE_TIME ( #186, #172 ) ;
#100 = AXIS2_PLACEMENT_3D ( 'NONE', #156, #42, #180 ) ;
#101 = CARTESIAN_POINT ( 'NONE',  ( 6.000000000000000900, 0.01499999999999999900, 6.000000000000000900 ) ) ;
#102 = COORDINATED_UNIVERSAL_TIME_OFFSET ( 5, 0, .BEHIND. ) ;
#103 = VECTOR ( 'NONE', #164, 39.37007874015748100 ) ;
#104 = CLOSED_SHELL ( 'NONE', ( #157, #138, #108, #197, #210, #179 ) ) ;
#105 = DIRECTION ( 'NONE',  ( 0.0000000000000000000, 0.0000000000000000000, 1.000000000000000000 ) ) ;
#106 = EDGE_CURVE ( 'NONE', #230, #65, #209, .T. ) ;
#107 = CARTESIAN_POINT ( 'NONE',  ( -6.000000000000000900, 0.01499999999999999900, 6.000000000000003600 ) ) ;
#108 = ADVANCED_FACE ( 'NONE', ( #130 ), #54, .F. ) ;
#109 = VECTOR ( 'NONE', #38, 39.37007874015748100 ) ;
#110 = DIRECTION ( 'NONE',  ( 0.0000000000000000000, 1.000000000000000000, 0.0000000000000000000 ) ) ;
#111 = PERSON_AND_ORGANIZATION_ROLE ( 'classification_officer' ) ;
#112 = DIRECTION ( 'NONE',  ( 9.106159978880877400E-017, -0.0000000000000000000, 1.000000000000000000 ) ) ;
#113 = AXIS2_PLACEMENT_3D ( 'NONE', #226, #110, #3 ) ;
#114 = PERSON ( 'UNSPECIFIED', 'UNSPECIFIED', 'UNSPECIFIED', ('UNSPECIFIED'), ('UNSPECIFIED'), ('UNSPECIFIED') ) ;
#115 =( LENGTH_UNIT ( ) NAMED_UNIT ( * ) SI_UNIT ( $, .METRE. ) );
#116 = PERSON_AND_ORGANIZATION_ROLE ( 'design_owner' ) ;
#117 = CALENDAR_DATE ( 2018, 4, 9 ) ;
#118 = VECTOR ( 'NONE', #208, 39.37007874015748100 ) ;
#119 = ORIENTED_EDGE ( 'NONE', *, *, #135, .F. ) ;
#120 = EDGE_CURVE ( 'NONE', #171, #219, #211, .T. ) ;
#121 = APPROVAL_DATE_TIME ( #1, #220 ) ;
#122 = CARTESIAN_POINT ( 'NONE',  ( -6.000000000000000900, 0.0000000000000000000, 6.000000000000003600 ) ) ;
#123 = CARTESIAN_POINT ( 'NONE',  ( -6.000000000000000900, 0.01499999999999999900, -5.999999999999999100 ) ) ;
#124 = ORIENTED_EDGE ( 'NONE', *, *, #47, .T. ) ;
#125 = DIRECTION ( 'NONE',  ( -0.0000000000000000000, -1.000000000000000000, -0.0000000000000000000 ) ) ;
#126 = CC_DESIGN_DATE_AND_TIME_ASSIGNMENT ( #23, #41, ( #22 ) ) ;
#127 = ORIENTED_EDGE ( 'NONE', *, *, #135, .T. ) ;
#128 = PRODUCT_DEFINITION ( 'UNKNOWN', '', #229, #43 ) ;
#129 = LOCAL_TIME ( 15, 3, 43.00000000000000000, #16 ) ;
#130 = FACE_OUTER_BOUND ( 'NONE', #46, .T. ) ;
#131 = PLANE ( 'NONE',  #113 ) ;
#132 = MECHANICAL_CONTEXT ( 'NONE', #221, 'mechanical' ) ;
#133 = PLANE ( 'NONE',  #53 ) ;
#134 = APPROVAL_ROLE ( '' ) ;
#135 = EDGE_CURVE ( 'NONE', #206, #219, #158, .T. ) ;
#136 = CARTESIAN_POINT ( 'NONE',  ( 6.000000000000000900, 0.01499999999999999900, -6.000000000000000900 ) ) ;
#137 = LINE ( 'NONE', #34, #93 ) ;
#138 = ADVANCED_FACE ( 'NONE', ( #52 ), #133, .F. ) ;
#139 = DIRECTION ( 'NONE',  ( -1.000000000000000000, 0.0000000000000000000, 9.106159978880878600E-017 ) ) ;
#140 = DATE_TIME_ROLE ( 'creation_date' ) ;
#141 = CARTESIAN_POINT ( 'NONE',  ( 6.000000000000000900, 0.0000000000000000000, -6.000000000000000900 ) ) ;
#142 = EDGE_CURVE ( 'NONE', #230, #68, #214, .T. ) ;
#143 = PRODUCT_RELATED_PRODUCT_CATEGORY ( 'detail', '', ( #195 ) ) ;
#144 = LINE ( 'NONE', #122, #17 ) ;
#145 = CC_DESIGN_APPROVAL ( #10, ( #128 ) ) ;
#146 = CARTESIAN_POINT ( 'NONE',  ( 6.000000000000000900, 0.01499999999999999900, 6.000000000000000900 ) ) ;
#147 = CARTESIAN_POINT ( 'NONE',  ( 6.000000000000000900, 0.01499999999999999900, -6.000000000000000900 ) ) ;
#148 = ORGANIZATION ( 'UNSPECIFIED', 'UNSPECIFIED', '' ) ;
#149 = DIRECTION ( 'NONE',  ( -1.000000000000000000, 0.0000000000000000000, 0.0000000000000000000 ) ) ;
#150 = PERSON_AND_ORGANIZATION_ROLE ( 'creator' ) ;
#151 = ORIENTED_EDGE ( 'NONE', *, *, #31, .F. ) ;
#152 = DIMENSIONAL_EXPONENTS ( 1.000000000000000000, 0.0000000000000000000, 0.0000000000000000000, 0.0000000000000000000, 0.0000000000000000000, 0.0000000000000000000, 0.0000000000000000000 ) ;
#153 = APPROVAL_STATUS ( 'not_yet_approved' ) ;
#154 = LINE ( 'NONE', #201, #103 ) ;
#155 = EDGE_LOOP ( 'NONE', ( #204, #11, #63, #187 ) ) ;
#156 = CARTESIAN_POINT ( 'NONE',  ( 0.0000000000000000000, 0.0000000000000000000, 0.0000000000000000000 ) ) ;
#157 = ADVANCED_FACE ( 'NONE', ( #56 ), #59, .F. ) ;
#158 = LINE ( 'NONE', #169, #225 ) ;
#159 = CC_DESIGN_DATE_AND_TIME_ASSIGNMENT ( #64, #140, ( #128 ) ) ;
#160 = VECTOR ( 'NONE', #139, 39.37007874015748100 ) ;
#161 = ORIENTED_EDGE ( 'NONE', *, *, #181, .F. ) ;
#162 = APPROVAL_PERSON_ORGANIZATION ( #165, #172, #134 ) ;
#163 = EDGE_LOOP ( 'NONE', ( #151, #27, #119, #237 ) ) ;
#164 = DIRECTION ( 'NONE',  ( 0.0000000000000000000, 0.0000000000000000000, -1.000000000000000000 ) ) ;
#165 = PERSON_AND_ORGANIZATION ( #114, #148 ) ;
#166 = CARTESIAN_POINT ( 'NONE',  ( 6.000000000000000900, 0.01499999999999999900, 6.000000000000000900 ) ) ;
#167 = FACE_OUTER_BOUND ( 'NONE', #155, .T. ) ;
#168 = ORIENTED_EDGE ( 'NONE', *, *, #81, .T. ) ;
#169 = CARTESIAN_POINT ( 'NONE',  ( 6.000000000000000900, 0.0000000000000000000, 6.000000000000000900 ) ) ;
#170 = PERSON_AND_ORGANIZATION ( #114, #148 ) ;
#171 = VERTEX_POINT ( 'NONE', #192 ) ;
#172 = APPROVAL ( #153, 'UNSPECIFIED' ) ;
#173 = DATE_AND_TIME ( #60, #182 ) ;
#174 = EDGE_LOOP ( 'NONE', ( #72, #87, #161, #236 ) ) ;
#175 = PERSON_AND_ORGANIZATION_ROLE ( 'creator' ) ;
#176 = PRODUCT_DEFINITION_SHAPE ( 'NONE', 'NONE',  #128 ) ;
#177 = PLANE ( 'NONE',  #194 ) ;
#178 = CALENDAR_DATE ( 2018, 4, 9 ) ;
#179 = ADVANCED_FACE ( 'NONE', ( #49 ), #131, .F. ) ;
#180 = DIRECTION ( 'NONE',  ( 1.000000000000000000, 0.0000000000000000000, 0.0000000000000000000 ) ) ;
#181 = EDGE_CURVE ( 'NONE', #61, #230, #137, .T. ) ;
#182 = LOCAL_TIME ( 15, 3, 43.00000000000000000, #102 ) ;
#183 = ORIENTED_EDGE ( 'NONE', *, *, #142, .T. ) ;
#184 = CARTESIAN_POINT ( 'NONE',  ( -6.000000000000000900, 0.01499999999999999900, -5.999999999999999100 ) ) ;
#185 = AXIS2_PLACEMENT_3D ( 'NONE', #136, #112, #77 ) ;
#186 = DATE_AND_TIME ( #12, #129 ) ;
#187 = ORIENTED_EDGE ( 'NONE', *, *, #120, .T. ) ;
#188 = DIRECTION ( 'NONE',  ( -0.0000000000000000000, -0.0000000000000000000, 1.000000000000000000 ) ) ;
#189 = VECTOR ( 'NONE', #82, 39.37007874015748100 ) ;
#190 = APPROVAL_ROLE ( '' ) ;
#191 = APPLICATION_PROTOCOL_DEFINITION ( 'international standard', 'config_control_design', 1994, #221 ) ;
#192 = CARTESIAN_POINT ( 'NONE',  ( 6.000000000000000900, 0.01499999999999999900, -6.000000000000000900 ) ) ;
#193 = VECTOR ( 'NONE', #32, 39.37007874015748100 ) ;
#194 = AXIS2_PLACEMENT_3D ( 'NONE', #62, #7, #44 ) ;
#195 = PRODUCT ( 'Web Model 32808_32808', 'Web Model 32808_32808', '', ( #132 ) ) ;
#196 = CARTESIAN_POINT ( 'NONE',  ( -6.000000000000000900, 0.01499999999999999900, 6.000000000000003600 ) ) ;
#197 = ADVANCED_FACE ( 'NONE', ( #167 ), #89, .F. ) ;
#198 = EDGE_CURVE ( 'NONE', #219, #217, #51, .T. ) ;
#199 = FACE_OUTER_BOUND ( 'NONE', #40, .T. ) ;
#200 = VECTOR ( 'NONE', #85, 39.37007874015748100 ) ;
#201 = CARTESIAN_POINT ( 'NONE',  ( 6.000000000000000900, 0.01499999999999999900, 6.000000000000000900 ) ) ;
#202 =( NAMED_UNIT ( * ) SI_UNIT ( $, .STERADIAN. ) SOLID_ANGLE_UNIT ( ) );
#203 = CARTESIAN_POINT ( 'NONE',  ( 6.000000000000000900, 0.01499999999999999900, 6.000000000000000900 ) ) ;
#204 = ORIENTED_EDGE ( 'NONE', *, *, #198, .T. ) ;
#205 = CARTESIAN_POINT ( 'NONE',  ( 6.000000000000000900, 0.0000000000000000000, 6.000000000000000900 ) ) ;
#206 = VERTEX_POINT ( 'NONE', #74 ) ;
#207 = UNCERTAINTY_MEASURE_WITH_UNIT (LENGTH_MEASURE( 1.000000000000000100E-005 ), #9, 'distance_accuracy_value', 'NONE');
#208 = DIRECTION ( 'NONE',  ( 1.000000000000000000, -0.0000000000000000000, -2.731847993664263200E-016 ) ) ;
#209 = LINE ( 'NONE', #146, #200 ) ;
#210 = ADVANCED_FACE ( 'NONE', ( #199 ), #177, .T. ) ;
#211 = LINE ( 'NONE', #88, #67 ) ;
#212 = DIRECTION ( 'NONE',  ( 1.000000000000000000, -0.0000000000000000000, 0.0000000000000000000 ) ) ;
#213 = ORIENTED_EDGE ( 'NONE', *, *, #106, .T. ) ;
#214 = LINE ( 'NONE', #196, #109 ) ;
#215 = MANIFOLD_SOLID_BREP ( 'Boss-Extrude1', #104 ) ;
#216 = APPROVAL_DATE_TIME ( #173, #10 ) ;
#217 = VERTEX_POINT ( 'NONE', #78 ) ;
#218 = AXIS2_PLACEMENT_3D ( 'NONE', #166, #149, #105 ) ;
#219 = VERTEX_POINT ( 'NONE', #141 ) ;
#220 = APPROVAL ( #6, 'UNSPECIFIED' ) ;
#221 = APPLICATION_CONTEXT ( 'configuration controlled 3d designs of mechanical parts and assemblies' ) ;
#222 = PERSON_AND_ORGANIZATION ( #114, #148 ) ;
#223 = CC_DESIGN_PERSON_AND_ORGANIZATION_ASSIGNMENT ( #33, #231, ( #229 ) ) ;
#224 = LOCAL_TIME ( 15, 3, 43.00000000000000000, #36 ) ;
#225 = VECTOR ( 'NONE', #69, 39.37007874015748100 ) ;
#226 = CARTESIAN_POINT ( 'NONE',  ( 0.0000000000000000000, 0.0000000000000000000, 0.0000000000000000000 ) ) ;
#227 = SECURITY_CLASSIFICATION_LEVEL ( 'unclassified' ) ;
#228 = APPROVAL_PERSON_ORGANIZATION ( #50, #10, #190 ) ;
#229 = PRODUCT_DEFINITION_FORMATION_WITH_SPECIFIED_SOURCE ( 'ANY', '', #195, .NOT_KNOWN. ) ;
#230 = VERTEX_POINT ( 'NONE', #233 ) ;
#231 = PERSON_AND_ORGANIZATION_ROLE ( 'design_supplier' ) ;
#232 = CARTESIAN_POINT ( 'NONE',  ( 6.000000000000000900, 0.0000000000000000000, -6.000000000000000900 ) ) ;
#233 = CARTESIAN_POINT ( 'NONE',  ( -6.000000000000000900, 0.01499999999999999900, 6.000000000000003600 ) ) ;
#234 = LINE ( 'NONE', #147, #193 ) ;
#235 = CC_DESIGN_APPROVAL ( #220, ( #22 ) ) ;
#236 = ORIENTED_EDGE ( 'NONE', *, *, #14, .T. ) ;
#237 = ORIENTED_EDGE ( 'NONE', *, *, #98, .F. ) ;
#238 = CARTESIAN_POINT ( 'NONE',  ( -6.000000000000000900, 0.0000000000000000000, 6.000000000000003600 ) ) ;
#239 = LOCAL_TIME ( 15, 3, 43.00000000000000000, #20 ) ;
#240 = LINE ( 'NONE', #205, #118 ) ;
ENDSEC;
END-ISO-10303-21;
