ISO-10303-21;
HEADER;
FILE_DESCRIPTION (( 'STEP AP203' ),
    '1' );
FILE_NAME ('Web Model 18466_18466.step',
    '2021-09-13T19:06:17',
    ( '' ),
    ( '' ),
    'SwSTEP 2.0',
    'SolidWorks 2018',
    '' );
FILE_SCHEMA (( 'CONFIG_CONTROL_DESIGN' ));
ENDSEC;

DATA;
#1 = AXIS2_PLACEMENT_3D ( 'NONE', #65, #137, #54 ) ;
#2 = DIRECTION ( 'NONE',  ( 1.000000000000000000, 0.000000000000000000, 0.000000000000000000 ) ) ;
#3 = APPROVAL_DATE_TIME ( #121, #28 ) ;
#4 = PERSON_AND_ORGANIZATION_ROLE ( 'design_supplier' ) ;
#5 = ADVANCED_FACE ( 'NONE', ( #92 ), #67, .F. ) ;
#6 = DIRECTION ( 'NONE',  ( 1.000000000000000000, 0.000000000000000000, 0.000000000000000000 ) ) ;
#7 = DIRECTION ( 'NONE',  ( 0.000000000000000000, 0.000000000000000000, 1.000000000000000000 ) ) ;
#8 = ORIENTED_EDGE ( 'NONE', *, *, #83, .F. ) ;
#9 = FACE_OUTER_BOUND ( 'NONE', #131, .T. ) ;
#10 = EDGE_CURVE ( 'NONE', #127, #36, #13, .T. ) ;
#11 = VERTEX_POINT ( 'NONE', #38 ) ;
#12 = DATE_AND_TIME ( #125, #150 ) ;
#13 = CIRCLE ( 'NONE', #44, 25.39999999999999858 ) ;
#14 = APPROVAL_STATUS ( 'not_yet_approved' ) ;
#15 = CIRCLE ( 'NONE', #27, 25.39999999999999858 ) ;
#16 = DIRECTION ( 'NONE',  ( -0.000000000000000000, -0.000000000000000000, -1.000000000000000000 ) ) ;
#17 = DIRECTION ( 'NONE',  ( 0.000000000000000000, 0.000000000000000000, 1.000000000000000000 ) ) ;
#18 = COORDINATED_UNIVERSAL_TIME_OFFSET ( 5, 0, .BEHIND. ) ;
#19 = CARTESIAN_POINT ( 'NONE',  ( 25.39999999999999858, 3.110602869834276076E-15, 3.180000000000000160 ) ) ;
#20 = EDGE_CURVE ( 'NONE', #36, #11, #114, .T. ) ;
#21 = MANIFOLD_SOLID_BREP ( 'Boss-Extrude1', #74 ) ;
#22 = PERSON ( 'UNSPECIFIED', 'UNSPECIFIED', 'UNSPECIFIED', ('UNSPECIFIED'), ('UNSPECIFIED'), ('UNSPECIFIED') ) ;
#23 = DATE_AND_TIME ( #47, #72 ) ;
#24 = APPROVAL ( #57, 'UNSPECIFIED' ) ;
#25 = CC_DESIGN_APPROVAL ( #24, ( #153 ) ) ;
#26 = ORIENTED_EDGE ( 'NONE', *, *, #10, .F. ) ;
#27 = AXIS2_PLACEMENT_3D ( 'NONE', #129, #35, #2 ) ;
#28 = APPROVAL ( #82, 'UNSPECIFIED' ) ;
#29 = PERSON_AND_ORGANIZATION ( #22, #133 ) ;
#30 = DIRECTION ( 'NONE',  ( 1.000000000000000000, 0.000000000000000000, 0.000000000000000000 ) ) ;
#31 = COORDINATED_UNIVERSAL_TIME_OFFSET ( 5, 0, .BEHIND. ) ;
#32 = CARTESIAN_POINT ( 'NONE',  ( 0.000000000000000000, 0.000000000000000000, 3.180000000000000160 ) ) ;
#33 = PLANE ( 'NONE',  #161 ) ;
#34 = DIRECTION ( 'NONE',  ( -0.000000000000000000, -0.000000000000000000, -1.000000000000000000 ) ) ;
#35 = DIRECTION ( 'NONE',  ( 0.000000000000000000, 0.000000000000000000, 1.000000000000000000 ) ) ;
#36 = VERTEX_POINT ( 'NONE', #174 ) ;
#37 = LINE ( 'NONE', #19, #75 ) ;
#38 = CARTESIAN_POINT ( 'NONE',  ( -25.39999999999999858, 0.000000000000000000, 0.000000000000000000 ) ) ;
#39 = LOCAL_TIME ( 15, 6, 17.00000000000000000, #18 ) ;
#40 = APPROVAL_ROLE ( '' ) ;
#41 =( NAMED_UNIT ( * ) SI_UNIT ( $, .STERADIAN. ) SOLID_ANGLE_UNIT ( ) );
#42 = DIRECTION ( 'NONE',  ( 0.000000000000000000, 0.000000000000000000, 1.000000000000000000 ) ) ;
#43 = EDGE_LOOP ( 'NONE', ( #148, #8 ) ) ;
#44 = AXIS2_PLACEMENT_3D ( 'NONE', #113, #17, #30 ) ;
#45 =( GEOMETRIC_REPRESENTATION_CONTEXT ( 3 ) GLOBAL_UNCERTAINTY_ASSIGNED_CONTEXT ( ( #132 ) ) GLOBAL_UNIT_ASSIGNED_CONTEXT ( ( #155, #166, #41 ) ) REPRESENTATION_CONTEXT ( 'NONE', 'WORKASPACE' ) );
#46 = DATE_AND_TIME ( #112, #39 ) ;
#47 = CALENDAR_DATE ( 2021, 13, 9 ) ;
#48 = CC_DESIGN_PERSON_AND_ORGANIZATION_ASSIGNMENT ( #152, #89, ( #153 ) ) ;
#49 = DESIGN_CONTEXT ( 'detailed design', #87, 'design' ) ;
#50 = COORDINATED_UNIVERSAL_TIME_OFFSET ( 5, 0, .BEHIND. ) ;
#51 = ORIENTED_EDGE ( 'NONE', *, *, #108, .F. ) ;
#52 = PERSON_AND_ORGANIZATION ( #22, #133 ) ;
#53 = AXIS2_PLACEMENT_3D ( 'NONE', #62, #124, #154 ) ;
#54 = DIRECTION ( 'NONE',  ( 1.000000000000000000, 0.000000000000000000, -0.000000000000000000 ) ) ;
#55 = CC_DESIGN_APPROVAL ( #28, ( #64 ) ) ;
#56 = DATE_TIME_ROLE ( 'creation_date' ) ;
#57 = APPROVAL_STATUS ( 'not_yet_approved' ) ;
#58 = AXIS2_PLACEMENT_3D ( 'NONE', #71, #142, #63 ) ;
#59 = CARTESIAN_POINT ( 'NONE',  ( 25.39999999999999858, 3.110602869834276076E-15, 0.000000000000000000 ) ) ;
#60 = ORIENTED_EDGE ( 'NONE', *, *, #83, .T. ) ;
#61 = VECTOR ( 'NONE', #126, 1000.000000000000000 ) ;
#62 = CARTESIAN_POINT ( 'NONE',  ( 0.000000000000000000, 0.000000000000000000, 0.000000000000000000 ) ) ;
#63 = DIRECTION ( 'NONE',  ( -1.000000000000000000, 0.000000000000000000, 0.000000000000000000 ) ) ;
#64 = SECURITY_CLASSIFICATION ( '', '', #103 ) ;
#65 = CARTESIAN_POINT ( 'NONE',  ( 0.000000000000000000, 0.000000000000000000, 0.000000000000000000 ) ) ;
#66 = ORIENTED_EDGE ( 'NONE', *, *, #110, .T. ) ;
#67 = PLANE ( 'NONE',  #1 ) ;
#68 = CARTESIAN_POINT ( 'NONE',  ( 0.000000000000000000, 0.000000000000000000, 0.000000000000000000 ) ) ;
#69 = APPROVAL_ROLE ( '' ) ;
#70 = CARTESIAN_POINT ( 'NONE',  ( 0.000000000000000000, 0.000000000000000000, 0.000000000000000000 ) ) ;
#71 = CARTESIAN_POINT ( 'NONE',  ( 0.000000000000000000, 0.000000000000000000, 3.180000000000000160 ) ) ;
#72 = LOCAL_TIME ( 15, 6, 17.00000000000000000, #146 ) ;
#73 = CC_DESIGN_PERSON_AND_ORGANIZATION_ASSIGNMENT ( #99, #141, ( #168 ) ) ;
#74 = CLOSED_SHELL ( 'NONE', ( #119, #91, #139, #5 ) ) ;
#75 = VECTOR ( 'NONE', #34, 1000.000000000000000 ) ;
#76 = PRODUCT_DEFINITION_SHAPE ( 'NONE', 'NONE',  #86 ) ;
#77 = CC_DESIGN_SECURITY_CLASSIFICATION ( #64, ( #153 ) ) ;
#78 = PERSON_AND_ORGANIZATION ( #22, #133 ) ;
#79 = EDGE_CURVE ( 'NONE', #11, #175, #145, .T. ) ;
#80 = ADVANCED_BREP_SHAPE_REPRESENTATION ( 'Web Model 18466_18466', ( #21, #53 ), #45 ) ;
#81 = CC_DESIGN_DATE_AND_TIME_ASSIGNMENT ( #23, #93, ( #64 ) ) ;
#82 = APPROVAL_STATUS ( 'not_yet_approved' ) ;
#83 = EDGE_CURVE ( 'NONE', #175, #11, #98, .T. ) ;
#84 = APPROVAL_PERSON_ORGANIZATION ( #136, #28, #96 ) ;
#85 = PERSON_AND_ORGANIZATION ( #22, #133 ) ;
#86 = PRODUCT_DEFINITION ( 'UNKNOWN', '', #153, #49 ) ;
#87 = APPLICATION_CONTEXT ( 'configuration controlled 3d designs of mechanical parts and assemblies' ) ;
#88 = DIRECTION ( 'NONE',  ( 1.000000000000000000, 0.000000000000000000, 0.000000000000000000 ) ) ;
#89 = PERSON_AND_ORGANIZATION_ROLE ( 'creator' ) ;
#90 = DIRECTION ( 'NONE',  ( 0.000000000000000000, 0.000000000000000000, 1.000000000000000000 ) ) ;
#91 = ADVANCED_FACE ( 'NONE', ( #9 ), #162, .T. ) ;
#92 = FACE_OUTER_BOUND ( 'NONE', #43, .T. ) ;
#93 = DATE_TIME_ROLE ( 'classification_date' ) ;
#94 = ORIENTED_EDGE ( 'NONE', *, *, #20, .T. ) ;
#95 = APPROVAL ( #14, 'UNSPECIFIED' ) ;
#96 = APPROVAL_ROLE ( '' ) ;
#97 = CALENDAR_DATE ( 2021, 13, 9 ) ;
#98 = CIRCLE ( 'NONE', #130, 25.39999999999999858 ) ;
#99 = PERSON_AND_ORGANIZATION ( #22, #133 ) ;
#100 = APPLICATION_PROTOCOL_DEFINITION ( 'international standard', 'config_control_design', 1994, #87 ) ;
#101 = CARTESIAN_POINT ( 'NONE',  ( 0.000000000000000000, 0.000000000000000000, 3.180000000000000160 ) ) ;
#102 = PERSON_AND_ORGANIZATION ( #22, #133 ) ;
#103 = SECURITY_CLASSIFICATION_LEVEL ( 'unclassified' ) ;
#104 = CC_DESIGN_PERSON_AND_ORGANIZATION_ASSIGNMENT ( #102, #140, ( #86 ) ) ;
#105 = EDGE_LOOP ( 'NONE', ( #66, #138 ) ) ;
#106 = PRODUCT_RELATED_PRODUCT_CATEGORY ( 'detail', '', ( #168 ) ) ;
#107 = PERSON_AND_ORGANIZATION_ROLE ( 'classification_officer' ) ;
#108 = EDGE_CURVE ( 'NONE', #127, #175, #37, .T. ) ;
#109 = CYLINDRICAL_SURFACE ( 'NONE', #122, 25.39999999999999858 ) ;
#110 = EDGE_CURVE ( 'NONE', #36, #127, #15, .T. ) ;
#111 = ORIENTED_EDGE ( 'NONE', *, *, #20, .F. ) ;
#112 = CALENDAR_DATE ( 2021, 13, 9 ) ;
#113 = CARTESIAN_POINT ( 'NONE',  ( 0.000000000000000000, 0.000000000000000000, 3.180000000000000160 ) ) ;
#114 = LINE ( 'NONE', #165, #61 ) ;
#115 = COORDINATED_UNIVERSAL_TIME_OFFSET ( 5, 0, .BEHIND. ) ;
#116 = AXIS2_PLACEMENT_3D ( 'NONE', #68, #42, #88 ) ;
#117 = DIRECTION ( 'NONE',  ( 1.000000000000000000, 0.000000000000000000, -0.000000000000000000 ) ) ;
#118 = CARTESIAN_POINT ( 'NONE',  ( 25.39999999999999858, 3.110602869834276076E-15, 3.180000000000000160 ) ) ;
#119 = ADVANCED_FACE ( 'NONE', ( #120 ), #109, .T. ) ;
#120 = FACE_OUTER_BOUND ( 'NONE', #135, .T. ) ;
#121 = DATE_AND_TIME ( #158, #163 ) ;
#122 = AXIS2_PLACEMENT_3D ( 'NONE', #101, #16, #151 ) ;
#123 = APPROVAL_DATE_TIME ( #160, #95 ) ;
#124 = DIRECTION ( 'NONE',  ( 0.000000000000000000, 0.000000000000000000, 1.000000000000000000 ) ) ;
#125 = CALENDAR_DATE ( 2021, 13, 9 ) ;
#126 = DIRECTION ( 'NONE',  ( -0.000000000000000000, -0.000000000000000000, -1.000000000000000000 ) ) ;
#127 = VERTEX_POINT ( 'NONE', #118 ) ;
#128 = CC_DESIGN_DATE_AND_TIME_ASSIGNMENT ( #12, #56, ( #86 ) ) ;
#129 = CARTESIAN_POINT ( 'NONE',  ( 0.000000000000000000, 0.000000000000000000, 3.180000000000000160 ) ) ;
#130 = AXIS2_PLACEMENT_3D ( 'NONE', #70, #7, #6 ) ;
#131 = EDGE_LOOP ( 'NONE', ( #51, #172, #94, #144 ) ) ;
#132 = UNCERTAINTY_MEASURE_WITH_UNIT (LENGTH_MEASURE( 1.000000000000000082E-05 ), #155, 'distance_accuracy_value', 'NONE');
#133 = ORGANIZATION ( 'UNSPECIFIED', 'UNSPECIFIED', '' ) ;
#134 = LOCAL_TIME ( 15, 6, 17.00000000000000000, #31 ) ;
#135 = EDGE_LOOP ( 'NONE', ( #26, #170, #60, #111 ) ) ;
#136 = PERSON_AND_ORGANIZATION ( #22, #133 ) ;
#137 = DIRECTION ( 'NONE',  ( 0.000000000000000000, 0.000000000000000000, 1.000000000000000000 ) ) ;
#138 = ORIENTED_EDGE ( 'NONE', *, *, #10, .T. ) ;
#139 = ADVANCED_FACE ( 'NONE', ( #159 ), #33, .T. ) ;
#140 = PERSON_AND_ORGANIZATION_ROLE ( 'creator' ) ;
#141 = PERSON_AND_ORGANIZATION_ROLE ( 'design_owner' ) ;
#142 = DIRECTION ( 'NONE',  ( -0.000000000000000000, -0.000000000000000000, -1.000000000000000000 ) ) ;
#143 = APPLICATION_PROTOCOL_DEFINITION ( 'international standard', 'config_control_design', 1994, #167 ) ;
#144 = ORIENTED_EDGE ( 'NONE', *, *, #79, .T. ) ;
#145 = CIRCLE ( 'NONE', #116, 25.39999999999999858 ) ;
#146 = COORDINATED_UNIVERSAL_TIME_OFFSET ( 5, 0, .BEHIND. ) ;
#147 = CC_DESIGN_APPROVAL ( #95, ( #86 ) ) ;
#148 = ORIENTED_EDGE ( 'NONE', *, *, #79, .F. ) ;
#149 = APPROVAL_DATE_TIME ( #46, #24 ) ;
#150 = LOCAL_TIME ( 15, 6, 17.00000000000000000, #50 ) ;
#151 = DIRECTION ( 'NONE',  ( -1.000000000000000000, 0.000000000000000000, 0.000000000000000000 ) ) ;
#152 = PERSON_AND_ORGANIZATION ( #22, #133 ) ;
#153 = PRODUCT_DEFINITION_FORMATION_WITH_SPECIFIED_SOURCE ( 'ANY', '', #168, .NOT_KNOWN. ) ;
#154 = DIRECTION ( 'NONE',  ( 1.000000000000000000, 0.000000000000000000, 0.000000000000000000 ) ) ;
#155 =( LENGTH_UNIT ( ) NAMED_UNIT ( * ) SI_UNIT ( .MILLI., .METRE. ) );
#156 = APPROVAL_PERSON_ORGANIZATION ( #52, #24, #69 ) ;
#157 = CC_DESIGN_PERSON_AND_ORGANIZATION_ASSIGNMENT ( #85, #107, ( #64 ) ) ;
#158 = CALENDAR_DATE ( 2021, 13, 9 ) ;
#159 = FACE_OUTER_BOUND ( 'NONE', #105, .T. ) ;
#160 = DATE_AND_TIME ( #97, #134 ) ;
#161 = AXIS2_PLACEMENT_3D ( 'NONE', #32, #90, #117 ) ;
#162 = CYLINDRICAL_SURFACE ( 'NONE', #58, 25.39999999999999858 ) ;
#163 = LOCAL_TIME ( 15, 6, 17.00000000000000000, #115 ) ;
#164 = MECHANICAL_CONTEXT ( 'NONE', #167, 'mechanical' ) ;
#165 = CARTESIAN_POINT ( 'NONE',  ( -25.39999999999999858, 0.000000000000000000, 3.180000000000000160 ) ) ;
#166 =( NAMED_UNIT ( * ) PLANE_ANGLE_UNIT ( ) SI_UNIT ( $, .RADIAN. ) );
#167 = APPLICATION_CONTEXT ( 'configuration controlled 3d designs of mechanical parts and assemblies' ) ;
#168 = PRODUCT ( 'Web Model 18466_18466', 'Web Model 18466_18466', '', ( #164 ) ) ;
#169 = CC_DESIGN_PERSON_AND_ORGANIZATION_ASSIGNMENT ( #78, #4, ( #153 ) ) ;
#170 = ORIENTED_EDGE ( 'NONE', *, *, #108, .T. ) ;
#171 = SHAPE_DEFINITION_REPRESENTATION ( #76, #80 ) ;
#172 = ORIENTED_EDGE ( 'NONE', *, *, #110, .F. ) ;
#173 = APPROVAL_PERSON_ORGANIZATION ( #29, #95, #40 ) ;
#174 = CARTESIAN_POINT ( 'NONE',  ( -25.39999999999999858, 0.000000000000000000, 3.180000000000000160 ) ) ;
#175 = VERTEX_POINT ( 'NONE', #59 ) ;
ENDSEC;
END-ISO-10303-21;
