ISO-10303-21;
HEADER;
FILE_DESCRIPTION (( 'STEP AP203' ),
    '1' );
FILE_NAME ('Web Model 19627_21351.step',
    '2022-03-25T17:22:49',
    ( '' ),
    ( '' ),
    'SwSTEP 2.0',
    'SolidWorks 2021',
    '' );
FILE_SCHEMA (( 'CONFIG_CONTROL_DESIGN' ));
ENDSEC;

DATA;
#1 =( NAMED_UNIT ( * ) SI_UNIT ( $, .STERADIAN. ) SOLID_ANGLE_UNIT ( ) );
#2 = AXIS2_PLACEMENT_3D ( 'NONE', #88, #136, #87 ) ;
#3 = PERSON_AND_ORGANIZATION ( #108, #96 ) ;
#4 = CYLINDRICAL_SURFACE ( 'NONE', #6, 12.69999999999999929 ) ;
#5 = PERSON_AND_ORGANIZATION ( #108, #96 ) ;
#6 = AXIS2_PLACEMENT_3D ( 'NONE', #101, #62, #111 ) ;
#7 = DATE_AND_TIME ( #156, #36 ) ;
#8 = PRODUCT_DEFINITION ( 'UNKNOWN', '', #110, #131 ) ;
#9 = CARTESIAN_POINT ( 'NONE',  ( 0.000000000000000000, 0.000000000000000000, 0.000000000000000000 ) ) ;
#10 = ORIENTED_EDGE ( 'NONE', *, *, #122, .F. ) ;
#11 = CC_DESIGN_APPROVAL ( #174, ( #8 ) ) ;
#12 = CARTESIAN_POINT ( 'NONE',  ( 0.000000000000000000, 0.000000000000000000, 1.520000000000000018 ) ) ;
#13 = PRODUCT_RELATED_PRODUCT_CATEGORY ( 'detail', '', ( #14 ) ) ;
#14 = PRODUCT ( 'Web Model 19627_21351', 'Web Model 19627_21351', '', ( #135 ) ) ;
#15 = APPLICATION_PROTOCOL_DEFINITION ( 'international standard', 'config_control_design', 1994, #116 ) ;
#16 = APPROVAL_PERSON_ORGANIZATION ( #3, #174, #46 ) ;
#17 = COORDINATED_UNIVERSAL_TIME_OFFSET ( 5, 0, .BEHIND. ) ;
#18 = ORIENTED_EDGE ( 'NONE', *, *, #34, .T. ) ;
#19 = APPROVAL_DATE_TIME ( #137, #174 ) ;
#20 = AXIS2_PLACEMENT_3D ( 'NONE', #157, #40, #142 ) ;
#21 = COORDINATED_UNIVERSAL_TIME_OFFSET ( 5, 0, .BEHIND. ) ;
#22 = CC_DESIGN_PERSON_AND_ORGANIZATION_ASSIGNMENT ( #83, #49, ( #110 ) ) ;
#23 = PERSON_AND_ORGANIZATION ( #108, #96 ) ;
#24 = VERTEX_POINT ( 'NONE', #154 ) ;
#25 = PERSON_AND_ORGANIZATION ( #108, #96 ) ;
#26 = EDGE_LOOP ( 'NONE', ( #10, #94, #52, #105 ) ) ;
#27 = COORDINATED_UNIVERSAL_TIME_OFFSET ( 5, 0, .BEHIND. ) ;
#28 = LOCAL_TIME ( 13, 22, 49.00000000000000000, #27 ) ;
#29 = DIRECTION ( 'NONE',  ( 1.000000000000000000, 0.000000000000000000, 0.000000000000000000 ) ) ;
#30 = CARTESIAN_POINT ( 'NONE',  ( -12.69999999999999929, 0.000000000000000000, 1.520000000000000018 ) ) ;
#31 = SECURITY_CLASSIFICATION ( '', '', #67 ) ;
#32 =( LENGTH_UNIT ( ) NAMED_UNIT ( * ) SI_UNIT ( .MILLI., .METRE. ) );
#33 = DIRECTION ( 'NONE',  ( 1.000000000000000000, 0.000000000000000000, -0.000000000000000000 ) ) ;
#34 = EDGE_CURVE ( 'NONE', #24, #102, #138, .T. ) ;
#35 = LINE ( 'NONE', #78, #128 ) ;
#36 = LOCAL_TIME ( 13, 22, 49.00000000000000000, #21 ) ;
#37 = PERSON_AND_ORGANIZATION ( #108, #96 ) ;
#38 = CC_DESIGN_APPROVAL ( #58, ( #110 ) ) ;
#39 = SHAPE_DEFINITION_REPRESENTATION ( #73, #147 ) ;
#40 = DIRECTION ( 'NONE',  ( 0.000000000000000000, 0.000000000000000000, 1.000000000000000000 ) ) ;
#41 = AXIS2_PLACEMENT_3D ( 'NONE', #171, #143, #84 ) ;
#42 = CC_DESIGN_PERSON_AND_ORGANIZATION_ASSIGNMENT ( #119, #169, ( #110 ) ) ;
#43 = ADVANCED_FACE ( 'NONE', ( #151 ), #55, .T. ) ;
#44 = AXIS2_PLACEMENT_3D ( 'NONE', #150, #126, #33 ) ;
#45 = EDGE_CURVE ( 'NONE', #102, #24, #79, .T. ) ;
#46 = APPROVAL_ROLE ( '' ) ;
#47 =( NAMED_UNIT ( * ) PLANE_ANGLE_UNIT ( ) SI_UNIT ( $, .RADIAN. ) );
#48 = DATE_TIME_ROLE ( 'creation_date' ) ;
#49 = PERSON_AND_ORGANIZATION_ROLE ( 'design_supplier' ) ;
#50 =( GEOMETRIC_REPRESENTATION_CONTEXT ( 3 ) GLOBAL_UNCERTAINTY_ASSIGNED_CONTEXT ( ( #155 ) ) GLOBAL_UNIT_ASSIGNED_CONTEXT ( ( #32, #47, #1 ) ) REPRESENTATION_CONTEXT ( 'NONE', 'WORKASPACE' ) );
#51 = APPROVAL_DATE_TIME ( #7, #92 ) ;
#52 = ORIENTED_EDGE ( 'NONE', *, *, #60, .T. ) ;
#53 = APPROVAL_PERSON_ORGANIZATION ( #25, #92, #158 ) ;
#54 = DATE_TIME_ROLE ( 'classification_date' ) ;
#55 = PLANE ( 'NONE',  #41 ) ;
#56 = PERSON_AND_ORGANIZATION_ROLE ( 'classification_officer' ) ;
#57 = DIRECTION ( 'NONE',  ( 1.000000000000000000, 0.000000000000000000, 0.000000000000000000 ) ) ;
#58 = APPROVAL ( #139, 'UNSPECIFIED' ) ;
#59 = DIRECTION ( 'NONE',  ( -0.000000000000000000, -0.000000000000000000, -1.000000000000000000 ) ) ;
#60 = EDGE_CURVE ( 'NONE', #170, #102, #161, .T. ) ;
#61 = CC_DESIGN_APPROVAL ( #92, ( #31 ) ) ;
#62 = DIRECTION ( 'NONE',  ( -0.000000000000000000, -0.000000000000000000, -1.000000000000000000 ) ) ;
#63 = DIRECTION ( 'NONE',  ( -0.000000000000000000, -0.000000000000000000, -1.000000000000000000 ) ) ;
#64 = CALENDAR_DATE ( 2022, 25, 3 ) ;
#65 = AXIS2_PLACEMENT_3D ( 'NONE', #145, #85, #98 ) ;
#66 = ORIENTED_EDGE ( 'NONE', *, *, #122, .T. ) ;
#67 = SECURITY_CLASSIFICATION_LEVEL ( 'unclassified' ) ;
#68 = EDGE_LOOP ( 'NONE', ( #160, #167 ) ) ;
#69 = CC_DESIGN_SECURITY_CLASSIFICATION ( #31, ( #110 ) ) ;
#70 = LOCAL_TIME ( 13, 22, 49.00000000000000000, #104 ) ;
#71 = CARTESIAN_POINT ( 'NONE',  ( -12.69999999999999929, 0.000000000000000000, 0.000000000000000000 ) ) ;
#72 = DIRECTION ( 'NONE',  ( -1.000000000000000000, 0.000000000000000000, 0.000000000000000000 ) ) ;
#73 = PRODUCT_DEFINITION_SHAPE ( 'NONE', 'NONE',  #8 ) ;
#74 = ADVANCED_FACE ( 'NONE', ( #134 ), #175, .T. ) ;
#75 = PLANE ( 'NONE',  #44 ) ;
#76 = CALENDAR_DATE ( 2022, 25, 3 ) ;
#77 = PERSON_AND_ORGANIZATION_ROLE ( 'creator' ) ;
#78 = CARTESIAN_POINT ( 'NONE',  ( 12.69999999999999929, 1.555301434917138433E-15, 1.520000000000000018 ) ) ;
#79 = CIRCLE ( 'NONE', #20, 12.69999999999999929 ) ;
#80 = APPROVAL_DATE_TIME ( #103, #58 ) ;
#81 = EDGE_CURVE ( 'NONE', #93, #170, #133, .T. ) ;
#82 = ORIENTED_EDGE ( 'NONE', *, *, #81, .F. ) ;
#83 = PERSON_AND_ORGANIZATION ( #108, #96 ) ;
#84 = DIRECTION ( 'NONE',  ( 1.000000000000000000, 0.000000000000000000, -0.000000000000000000 ) ) ;
#85 = DIRECTION ( 'NONE',  ( 0.000000000000000000, 0.000000000000000000, 1.000000000000000000 ) ) ;
#86 = AXIS2_PLACEMENT_3D ( 'NONE', #12, #173, #29 ) ;
#87 = DIRECTION ( 'NONE',  ( 1.000000000000000000, 0.000000000000000000, 0.000000000000000000 ) ) ;
#88 = CARTESIAN_POINT ( 'NONE',  ( 0.000000000000000000, 0.000000000000000000, 0.000000000000000000 ) ) ;
#89 = CALENDAR_DATE ( 2022, 25, 3 ) ;
#90 = LOCAL_TIME ( 13, 22, 49.00000000000000000, #127 ) ;
#91 = EDGE_CURVE ( 'NONE', #170, #93, #159, .T. ) ;
#92 = APPROVAL ( #168, 'UNSPECIFIED' ) ;
#93 = VERTEX_POINT ( 'NONE', #124 ) ;
#94 = ORIENTED_EDGE ( 'NONE', *, *, #91, .F. ) ;
#95 = CARTESIAN_POINT ( 'NONE',  ( 0.000000000000000000, 0.000000000000000000, 1.520000000000000018 ) ) ;
#96 = ORGANIZATION ( 'UNSPECIFIED', 'UNSPECIFIED', '' ) ;
#97 = CC_DESIGN_PERSON_AND_ORGANIZATION_ASSIGNMENT ( #153, #164, ( #14 ) ) ;
#98 = DIRECTION ( 'NONE',  ( 1.000000000000000000, 0.000000000000000000, 0.000000000000000000 ) ) ;
#99 = MANIFOLD_SOLID_BREP ( 'Boss-Extrude1', #112 ) ;
#100 = APPLICATION_PROTOCOL_DEFINITION ( 'international standard', 'config_control_design', 1994, #163 ) ;
#101 = CARTESIAN_POINT ( 'NONE',  ( 0.000000000000000000, 0.000000000000000000, 1.520000000000000018 ) ) ;
#102 = VERTEX_POINT ( 'NONE', #71 ) ;
#103 = DATE_AND_TIME ( #89, #28 ) ;
#104 = COORDINATED_UNIVERSAL_TIME_OFFSET ( 5, 0, .BEHIND. ) ;
#105 = ORIENTED_EDGE ( 'NONE', *, *, #45, .T. ) ;
#106 = ADVANCED_FACE ( 'NONE', ( #109 ), #75, .F. ) ;
#107 = ADVANCED_FACE ( 'NONE', ( #152 ), #4, .T. ) ;
#108 = PERSON ( 'UNSPECIFIED', 'UNSPECIFIED', 'UNSPECIFIED', ('UNSPECIFIED'), ('UNSPECIFIED'), ('UNSPECIFIED') ) ;
#109 = FACE_OUTER_BOUND ( 'NONE', #68, .T. ) ;
#110 = PRODUCT_DEFINITION_FORMATION_WITH_SPECIFIED_SOURCE ( 'ANY', '', #14, .NOT_KNOWN. ) ;
#111 = DIRECTION ( 'NONE',  ( -1.000000000000000000, 0.000000000000000000, 0.000000000000000000 ) ) ;
#112 = CLOSED_SHELL ( 'NONE', ( #107, #74, #43, #106 ) ) ;
#113 = DATE_AND_TIME ( #64, #90 ) ;
#114 = APPROVAL_ROLE ( '' ) ;
#115 = CC_DESIGN_DATE_AND_TIME_ASSIGNMENT ( #113, #48, ( #8 ) ) ;
#116 = APPLICATION_CONTEXT ( 'configuration controlled 3d designs of mechanical parts and assemblies' ) ;
#117 = DIRECTION ( 'NONE',  ( 0.000000000000000000, 0.000000000000000000, 1.000000000000000000 ) ) ;
#118 = LOCAL_TIME ( 13, 22, 49.00000000000000000, #17 ) ;
#119 = PERSON_AND_ORGANIZATION ( #108, #96 ) ;
#120 = EDGE_LOOP ( 'NONE', ( #82, #66, #18, #172 ) ) ;
#121 = ORIENTED_EDGE ( 'NONE', *, *, #81, .T. ) ;
#122 = EDGE_CURVE ( 'NONE', #93, #24, #35, .T. ) ;
#123 = CC_DESIGN_DATE_AND_TIME_ASSIGNMENT ( #129, #54, ( #31 ) ) ;
#124 = CARTESIAN_POINT ( 'NONE',  ( 12.69999999999999929, 1.555301434917138433E-15, 1.520000000000000018 ) ) ;
#125 = AXIS2_PLACEMENT_3D ( 'NONE', #9, #117, #57 ) ;
#126 = DIRECTION ( 'NONE',  ( 0.000000000000000000, 0.000000000000000000, 1.000000000000000000 ) ) ;
#127 = COORDINATED_UNIVERSAL_TIME_OFFSET ( 5, 0, .BEHIND. ) ;
#128 = VECTOR ( 'NONE', #63, 1000.000000000000000 ) ;
#129 = DATE_AND_TIME ( #141, #70 ) ;
#130 = EDGE_LOOP ( 'NONE', ( #140, #121 ) ) ;
#131 = DESIGN_CONTEXT ( 'detailed design', #116, 'design' ) ;
#132 = APPROVAL_PERSON_ORGANIZATION ( #37, #58, #114 ) ;
#133 = CIRCLE ( 'NONE', #65, 12.69999999999999929 ) ;
#134 = FACE_OUTER_BOUND ( 'NONE', #26, .T. ) ;
#135 = MECHANICAL_CONTEXT ( 'NONE', #163, 'mechanical' ) ;
#136 = DIRECTION ( 'NONE',  ( 0.000000000000000000, 0.000000000000000000, 1.000000000000000000 ) ) ;
#137 = DATE_AND_TIME ( #76, #118 ) ;
#138 = CIRCLE ( 'NONE', #125, 12.69999999999999929 ) ;
#139 = APPROVAL_STATUS ( 'not_yet_approved' ) ;
#140 = ORIENTED_EDGE ( 'NONE', *, *, #91, .T. ) ;
#141 = CALENDAR_DATE ( 2022, 25, 3 ) ;
#142 = DIRECTION ( 'NONE',  ( 1.000000000000000000, 0.000000000000000000, 0.000000000000000000 ) ) ;
#143 = DIRECTION ( 'NONE',  ( 0.000000000000000000, 0.000000000000000000, 1.000000000000000000 ) ) ;
#144 = CC_DESIGN_PERSON_AND_ORGANIZATION_ASSIGNMENT ( #5, #77, ( #8 ) ) ;
#145 = CARTESIAN_POINT ( 'NONE',  ( 0.000000000000000000, 0.000000000000000000, 1.520000000000000018 ) ) ;
#146 = AXIS2_PLACEMENT_3D ( 'NONE', #95, #59, #72 ) ;
#147 = ADVANCED_BREP_SHAPE_REPRESENTATION ( 'Web Model 19627_21351', ( #99, #2 ), #50 ) ;
#148 = DIRECTION ( 'NONE',  ( -0.000000000000000000, -0.000000000000000000, -1.000000000000000000 ) ) ;
#149 = CC_DESIGN_PERSON_AND_ORGANIZATION_ASSIGNMENT ( #23, #56, ( #31 ) ) ;
#150 = CARTESIAN_POINT ( 'NONE',  ( 0.000000000000000000, 0.000000000000000000, 0.000000000000000000 ) ) ;
#151 = FACE_OUTER_BOUND ( 'NONE', #130, .T. ) ;
#152 = FACE_OUTER_BOUND ( 'NONE', #120, .T. ) ;
#153 = PERSON_AND_ORGANIZATION ( #108, #96 ) ;
#154 = CARTESIAN_POINT ( 'NONE',  ( 12.69999999999999929, 1.555301434917138433E-15, 0.000000000000000000 ) ) ;
#155 = UNCERTAINTY_MEASURE_WITH_UNIT (LENGTH_MEASURE( 1.000000000000000082E-05 ), #32, 'distance_accuracy_value', 'NONE');
#156 = CALENDAR_DATE ( 2022, 25, 3 ) ;
#157 = CARTESIAN_POINT ( 'NONE',  ( 0.000000000000000000, 0.000000000000000000, 0.000000000000000000 ) ) ;
#158 = APPROVAL_ROLE ( '' ) ;
#159 = CIRCLE ( 'NONE', #86, 12.69999999999999929 ) ;
#160 = ORIENTED_EDGE ( 'NONE', *, *, #45, .F. ) ;
#161 = LINE ( 'NONE', #30, #166 ) ;
#162 = CARTESIAN_POINT ( 'NONE',  ( -12.69999999999999929, 0.000000000000000000, 1.520000000000000018 ) ) ;
#163 = APPLICATION_CONTEXT ( 'configuration controlled 3d designs of mechanical parts and assemblies' ) ;
#164 = PERSON_AND_ORGANIZATION_ROLE ( 'design_owner' ) ;
#165 = APPROVAL_STATUS ( 'not_yet_approved' ) ;
#166 = VECTOR ( 'NONE', #148, 1000.000000000000000 ) ;
#167 = ORIENTED_EDGE ( 'NONE', *, *, #34, .F. ) ;
#168 = APPROVAL_STATUS ( 'not_yet_approved' ) ;
#169 = PERSON_AND_ORGANIZATION_ROLE ( 'creator' ) ;
#170 = VERTEX_POINT ( 'NONE', #162 ) ;
#171 = CARTESIAN_POINT ( 'NONE',  ( 0.000000000000000000, 0.000000000000000000, 1.520000000000000018 ) ) ;
#172 = ORIENTED_EDGE ( 'NONE', *, *, #60, .F. ) ;
#173 = DIRECTION ( 'NONE',  ( 0.000000000000000000, 0.000000000000000000, 1.000000000000000000 ) ) ;
#174 = APPROVAL ( #165, 'UNSPECIFIED' ) ;
#175 = CYLINDRICAL_SURFACE ( 'NONE', #146, 12.69999999999999929 ) ;
ENDSEC;
END-ISO-10303-21;
