ISO-10303-21;
HEADER;
FILE_DESCRIPTION (( 'STEP AP203' ),
    '1' );
FILE_NAME ('Web Model 49631.STEP',
    '2017-01-31T15:23:19',
    ( '' ),
    ( '' ),
    'SwSTEP 2.0',
    'SolidWorks 2016',
    '' );
FILE_SCHEMA (( 'CONFIG_CONTROL_DESIGN' ));
ENDSEC;

DATA;
#1 = EDGE_LOOP ( 'NONE', ( #210, #204, #97, #147 ) ) ;
#2 = ORIENTED_EDGE ( 'NONE', *, *, #100, .F. ) ;
#3 = CALENDAR_DATE ( 2017, 31, 1 ) ;
#4 = ORIENTED_EDGE ( 'NONE', *, *, #184, .T. ) ;
#5 = AXIS2_PLACEMENT_3D ( 'NONE', #198, #12, #215 ) ;
#6 = LOCAL_TIME ( 10, 23, 19.00000000000000000, #19 ) ;
#7 = VECTOR ( 'NONE', #26, 1000.000000000000000 ) ;
#8 = COORDINATED_UNIVERSAL_TIME_OFFSET ( 5, 0, .BEHIND. ) ;
#9 = ADVANCED_FACE ( 'NONE', ( #71 ), #56, .F. ) ;
#10 = VERTEX_POINT ( 'NONE', #107 ) ;
#11 = EDGE_CURVE ( 'NONE', #41, #176, #34, .T. ) ;
#12 = DIRECTION ( 'NONE',  ( 1.000000000000000000, 0.0000000000000000000, -0.0000000000000000000 ) ) ;
#13 = APPROVAL_ROLE ( '' ) ;
#14 = VERTEX_POINT ( 'NONE', #235 ) ;
#15 = APPROVAL_ROLE ( '' ) ;
#16 = CC_DESIGN_APPROVAL ( #92, ( #188 ) ) ;
#17 = PERSON_AND_ORGANIZATION ( #65, #208 ) ;
#18 = DIRECTION ( 'NONE',  ( 1.000000000000000000, -8.673617379884035500E-017, 0.0000000000000000000 ) ) ;
#19 = COORDINATED_UNIVERSAL_TIME_OFFSET ( 5, 0, .BEHIND. ) ;
#20 = ORIENTED_EDGE ( 'NONE', *, *, #142, .F. ) ;
#21 = LINE ( 'NONE', #47, #212 ) ;
#22 = ORIENTED_EDGE ( 'NONE', *, *, #95, .F. ) ;
#23 = CARTESIAN_POINT ( 'NONE',  ( -5.000000000000000000, 5.000000000000000900, 0.0000000000000000000 ) ) ;
#24 = LINE ( 'NONE', #234, #74 ) ;
#25 = VECTOR ( 'NONE', #70, 1000.000000000000000 ) ;
#26 = DIRECTION ( 'NONE',  ( 0.0000000000000000000, -1.000000000000000000, 0.0000000000000000000 ) ) ;
#27 = MECHANICAL_CONTEXT ( 'NONE', #233, 'mechanical' ) ;
#28 = CARTESIAN_POINT ( 'NONE',  ( -5.000000000000000000, 5.000000000000000900, 2.000000000000000000 ) ) ;
#29 = DIRECTION ( 'NONE',  ( -0.0000000000000000000, 0.0000000000000000000, 1.000000000000000000 ) ) ;
#30 = PERSON_AND_ORGANIZATION ( #65, #208 ) ;
#31 = LINE ( 'NONE', #228, #25 ) ;
#32 = PLANE ( 'NONE',  #84 ) ;
#33 = VERTEX_POINT ( 'NONE', #81 ) ;
#34 = LINE ( 'NONE', #109, #143 ) ;
#35 = EDGE_LOOP ( 'NONE', ( #85, #2, #20, #94 ) ) ;
#36 = PERSON_AND_ORGANIZATION ( #65, #208 ) ;
#37 = FACE_OUTER_BOUND ( 'NONE', #122, .T. ) ;
#38 = CC_DESIGN_DATE_AND_TIME_ASSIGNMENT ( #150, #163, ( #105 ) ) ;
#39 = ORIENTED_EDGE ( 'NONE', *, *, #55, .T. ) ;
#40 = PRODUCT ( 'Web Model 49631', 'Web Model 49631', '', ( #27 ) ) ;
#41 = VERTEX_POINT ( 'NONE', #237 ) ;
#42 = CC_DESIGN_PERSON_AND_ORGANIZATION_ASSIGNMENT ( #207, #106, ( #188 ) ) ;
#43 = CC_DESIGN_PERSON_AND_ORGANIZATION_ASSIGNMENT ( #124, #146, ( #141 ) ) ;
#44 = ORIENTED_EDGE ( 'NONE', *, *, #142, .T. ) ;
#45 = FACE_OUTER_BOUND ( 'NONE', #35, .T. ) ;
#46 = ADVANCED_FACE ( 'NONE', ( #61 ), #167, .F. ) ;
#47 = CARTESIAN_POINT ( 'NONE',  ( -5.000000000000000000, -4.999999999999999100, 2.000000000000000000 ) ) ;
#48 = APPROVAL_DATE_TIME ( #111, #92 ) ;
#49 = PRODUCT_RELATED_PRODUCT_CATEGORY ( 'detail', '', ( #40 ) ) ;
#50 = DIRECTION ( 'NONE',  ( -0.0000000000000000000, 1.000000000000000000, -0.0000000000000000000 ) ) ;
#51 = ADVANCED_FACE ( 'NONE', ( #37 ), #145, .T. ) ;
#52 = DIRECTION ( 'NONE',  ( 0.0000000000000000000, -1.000000000000000000, 0.0000000000000000000 ) ) ;
#53 = VECTOR ( 'NONE', #217, 1000.000000000000000 ) ;
#54 = VECTOR ( 'NONE', #230, 1000.000000000000000 ) ;
#55 = EDGE_CURVE ( 'NONE', #214, #41, #137, .T. ) ;
#56 = PLANE ( 'NONE',  #199 ) ;
#57 = APPLICATION_CONTEXT ( 'configuration controlled 3d designs of mechanical parts and assemblies' ) ;
#58 = APPLICATION_PROTOCOL_DEFINITION ( 'international standard', 'config_control_design', 1994, #233 ) ;
#59 = CALENDAR_DATE ( 2017, 31, 1 ) ;
#60 = CARTESIAN_POINT ( 'NONE',  ( -5.000000000000000000, -4.999999999999999100, 2.000000000000000000 ) ) ;
#61 = FACE_OUTER_BOUND ( 'NONE', #1, .T. ) ;
#62 = LOCAL_TIME ( 10, 23, 19.00000000000000000, #135 ) ;
#63 = ORIENTED_EDGE ( 'NONE', *, *, #100, .T. ) ;
#64 = AXIS2_PLACEMENT_3D ( 'NONE', #83, #200, #108 ) ;
#65 = PERSON ( 'UNSPECIFIED', 'UNSPECIFIED', 'UNSPECIFIED', ('UNSPECIFIED'), ('UNSPECIFIED'), ('UNSPECIFIED') ) ;
#66 = PERSON_AND_ORGANIZATION ( #65, #208 ) ;
#67 = ADVANCED_BREP_SHAPE_REPRESENTATION ( 'Web Model 49631', ( #133, #96 ), #172 ) ;
#68 = EDGE_CURVE ( 'NONE', #112, #176, #24, .T. ) ;
#69 = CARTESIAN_POINT ( 'NONE',  ( -5.000000000000000000, 5.000000000000000900, 2.000000000000000000 ) ) ;
#70 = DIRECTION ( 'NONE',  ( -1.000000000000000000, -0.0000000000000000000, -0.0000000000000000000 ) ) ;
#71 = FACE_OUTER_BOUND ( 'NONE', #152, .T. ) ;
#72 = CC_DESIGN_PERSON_AND_ORGANIZATION_ASSIGNMENT ( #116, #119, ( #40 ) ) ;
#73 = CARTESIAN_POINT ( 'NONE',  ( 5.000000000000000000, 5.000000000000000900, 0.0000000000000000000 ) ) ;
#74 = VECTOR ( 'NONE', #187, 1000.000000000000000 ) ;
#75 = ADVANCED_FACE ( 'NONE', ( #45 ), #32, .F. ) ;
#76 = DIRECTION ( 'NONE',  ( 8.673617379884035500E-017, 1.000000000000000000, -0.0000000000000000000 ) ) ;
#77 = AXIS2_PLACEMENT_3D ( 'NONE', #151, #29, #236 ) ;
#78 = EDGE_CURVE ( 'NONE', #176, #10, #196, .T. ) ;
#79 = APPROVAL_STATUS ( 'not_yet_approved' ) ;
#80 = APPROVAL_PERSON_ORGANIZATION ( #30, #158, #13 ) ;
#81 = CARTESIAN_POINT ( 'NONE',  ( 5.000000000000000000, 5.000000000000000900, 2.000000000000000000 ) ) ;
#82 = EDGE_LOOP ( 'NONE', ( #177, #232, #209, #154 ) ) ;
#83 = CARTESIAN_POINT ( 'NONE',  ( -5.000000000000000000, 5.000000000000000900, 0.0000000000000000000 ) ) ;
#84 = AXIS2_PLACEMENT_3D ( 'NONE', #169, #203, #126 ) ;
#85 = ORIENTED_EDGE ( 'NONE', *, *, #78, .T. ) ;
#86 = LINE ( 'NONE', #28, #128 ) ;
#87 = ADVANCED_FACE ( 'NONE', ( #216 ), #162, .F. ) ;
#88 = CC_DESIGN_APPROVAL ( #158, ( #141 ) ) ;
#89 = COORDINATED_UNIVERSAL_TIME_OFFSET ( 5, 0, .BEHIND. ) ;
#90 = EDGE_LOOP ( 'NONE', ( #130, #22, #155, #63 ) ) ;
#91 = EDGE_CURVE ( 'NONE', #14, #41, #189, .T. ) ;
#92 = APPROVAL ( #79, 'UNSPECIFIED' ) ;
#93 = EDGE_CURVE ( 'NONE', #10, #14, #117, .T. ) ;
#94 = ORIENTED_EDGE ( 'NONE', *, *, #68, .T. ) ;
#95 = EDGE_CURVE ( 'NONE', #229, #14, #223, .T. ) ;
#96 = AXIS2_PLACEMENT_3D ( 'NONE', #195, #98, #123 ) ;
#97 = ORIENTED_EDGE ( 'NONE', *, *, #78, .F. ) ;
#98 = DIRECTION ( 'NONE',  ( 0.0000000000000000000, 0.0000000000000000000, 1.000000000000000000 ) ) ;
#99 = DATE_AND_TIME ( #102, #62 ) ;
#100 = EDGE_CURVE ( 'NONE', #33, #10, #186, .T. ) ;
#101 = LOCAL_TIME ( 10, 23, 19.00000000000000000, #8 ) ;
#102 = CALENDAR_DATE ( 2017, 31, 1 ) ;
#103 = ORIENTED_EDGE ( 'NONE', *, *, #120, .T. ) ;
#104 = DIRECTION ( 'NONE',  ( 1.000000000000000000, -8.673617379884035500E-017, 0.0000000000000000000 ) ) ;
#105 = PRODUCT_DEFINITION ( 'UNKNOWN', '', #141, #220 ) ;
#106 = PERSON_AND_ORGANIZATION_ROLE ( 'classification_officer' ) ;
#107 = CARTESIAN_POINT ( 'NONE',  ( 5.000000000000000000, 5.000000000000000900, 0.0000000000000000000 ) ) ;
#108 = DIRECTION ( 'NONE',  ( 1.000000000000000000, 0.0000000000000000000, 0.0000000000000000000 ) ) ;
#109 = CARTESIAN_POINT ( 'NONE',  ( -5.000000000000000000, -4.999999999999999100, 0.0000000000000000000 ) ) ;
#110 = ORIENTED_EDGE ( 'NONE', *, *, #68, .F. ) ;
#111 = DATE_AND_TIME ( #3, #197 ) ;
#112 = VERTEX_POINT ( 'NONE', #160 ) ;
#113 = APPROVAL ( #125, 'UNSPECIFIED' ) ;
#114 = CARTESIAN_POINT ( 'NONE',  ( 5.000000000000000000, -5.000000000000000000, 0.0000000000000000000 ) ) ;
#115 = FACE_OUTER_BOUND ( 'NONE', #90, .T. ) ;
#116 = PERSON_AND_ORGANIZATION ( #65, #208 ) ;
#117 = LINE ( 'NONE', #23, #54 ) ;
#118 = CARTESIAN_POINT ( 'NONE',  ( -5.000000000000000000, 5.000000000000000900, 0.0000000000000000000 ) ) ;
#119 = PERSON_AND_ORGANIZATION_ROLE ( 'design_owner' ) ;
#120 = EDGE_CURVE ( 'NONE', #229, #214, #86, .T. ) ;
#121 = SECURITY_CLASSIFICATION_LEVEL ( 'unclassified' ) ;
#122 = EDGE_LOOP ( 'NONE', ( #103, #4, #44, #140 ) ) ;
#123 = DIRECTION ( 'NONE',  ( 1.000000000000000000, 0.0000000000000000000, 0.0000000000000000000 ) ) ;
#124 = PERSON_AND_ORGANIZATION ( #65, #208 ) ;
#125 = APPROVAL_STATUS ( 'not_yet_approved' ) ;
#126 = DIRECTION ( 'NONE',  ( 0.0000000000000000000, 0.0000000000000000000, 1.000000000000000000 ) ) ;
#127 = CC_DESIGN_PERSON_AND_ORGANIZATION_ASSIGNMENT ( #17, #222, ( #105 ) ) ;
#128 = VECTOR ( 'NONE', #179, 1000.000000000000000 ) ;
#129 = CC_DESIGN_SECURITY_CLASSIFICATION ( #188, ( #141 ) ) ;
#130 = ORIENTED_EDGE ( 'NONE', *, *, #93, .T. ) ;
#131 = DATE_AND_TIME ( #138, #6 ) ;
#132 = VECTOR ( 'NONE', #50, 1000.000000000000000 ) ;
#133 = MANIFOLD_SOLID_BREP ( 'Extrude1', #194 ) ;
#134 = CC_DESIGN_PERSON_AND_ORGANIZATION_ASSIGNMENT ( #36, #218, ( #141 ) ) ;
#135 = COORDINATED_UNIVERSAL_TIME_OFFSET ( 5, 0, .BEHIND. ) ;
#136 = PLANE ( 'NONE',  #175 ) ;
#137 = LINE ( 'NONE', #60, #225 ) ;
#138 = CALENDAR_DATE ( 2017, 31, 1 ) ;
#139 = VECTOR ( 'NONE', #161, 1000.000000000000000 ) ;
#140 = ORIENTED_EDGE ( 'NONE', *, *, #174, .T. ) ;
#141 = PRODUCT_DEFINITION_FORMATION_WITH_SPECIFIED_SOURCE ( 'ANY', '', #40, .NOT_KNOWN. ) ;
#142 = EDGE_CURVE ( 'NONE', #112, #33, #173, .T. ) ;
#143 = VECTOR ( 'NONE', #18, 1000.000000000000000 ) ;
#144 = ADVANCED_FACE ( 'NONE', ( #115 ), #136, .F. ) ;
#145 = PLANE ( 'NONE',  #77 ) ;
#146 = PERSON_AND_ORGANIZATION_ROLE ( 'creator' ) ;
#147 = ORIENTED_EDGE ( 'NONE', *, *, #11, .F. ) ;
#148 = APPLICATION_PROTOCOL_DEFINITION ( 'international standard', 'config_control_design', 1994, #57 ) ;
#149 = UNCERTAINTY_MEASURE_WITH_UNIT (LENGTH_MEASURE( 1.000000000000000100E-005 ), #171, 'distance_accuracy_value', 'NONE');
#150 = DATE_AND_TIME ( #59, #231 ) ;
#151 = CARTESIAN_POINT ( 'NONE',  ( -5.000000000000000000, 5.000000000000000900, 2.000000000000000000 ) ) ;
#152 = EDGE_LOOP ( 'NONE', ( #205, #110, #193, #39 ) ) ;
#153 = DATE_AND_TIME ( #192, #101 ) ;
#154 = ORIENTED_EDGE ( 'NONE', *, *, #95, .T. ) ;
#155 = ORIENTED_EDGE ( 'NONE', *, *, #174, .F. ) ;
#156 = APPROVAL_PERSON_ORGANIZATION ( #66, #113, #166 ) ;
#157 =( NAMED_UNIT ( * ) SI_UNIT ( $, .STERADIAN. ) SOLID_ANGLE_UNIT ( ) );
#158 = APPROVAL ( #168, 'UNSPECIFIED' ) ;
#159 = CARTESIAN_POINT ( 'NONE',  ( 5.000000000000000000, 5.000000000000000900, 2.000000000000000000 ) ) ;
#160 = CARTESIAN_POINT ( 'NONE',  ( 5.000000000000000000, -5.000000000000000000, 2.000000000000000000 ) ) ;
#161 = DIRECTION ( 'NONE',  ( -0.0000000000000000000, -0.0000000000000000000, -1.000000000000000000 ) ) ;
#162 = PLANE ( 'NONE',  #5 ) ;
#163 = DATE_TIME_ROLE ( 'creation_date' ) ;
#164 = DATE_TIME_ROLE ( 'classification_date' ) ;
#165 = CARTESIAN_POINT ( 'NONE',  ( -5.000000000000000000, -4.999999999999999100, 2.000000000000000000 ) ) ;
#166 = APPROVAL_ROLE ( '' ) ;
#167 = PLANE ( 'NONE',  #64 ) ;
#168 = APPROVAL_STATUS ( 'not_yet_approved' ) ;
#169 = CARTESIAN_POINT ( 'NONE',  ( 5.000000000000000000, 5.000000000000000900, 2.000000000000000000 ) ) ;
#170 = PERSON_AND_ORGANIZATION ( #65, #208 ) ;
#171 =( LENGTH_UNIT ( ) NAMED_UNIT ( * ) SI_UNIT ( .MILLI., .METRE. ) );
#172 =( GEOMETRIC_REPRESENTATION_CONTEXT ( 3 ) GLOBAL_UNCERTAINTY_ASSIGNED_CONTEXT ( ( #149 ) ) GLOBAL_UNIT_ASSIGNED_CONTEXT ( ( #171, #226, #157 ) ) REPRESENTATION_CONTEXT ( 'NONE', 'WORKASPACE' ) );
#173 = LINE ( 'NONE', #159, #132 ) ;
#174 = EDGE_CURVE ( 'NONE', #33, #229, #31, .T. ) ;
#175 = AXIS2_PLACEMENT_3D ( 'NONE', #69, #52, #213 ) ;
#176 = VERTEX_POINT ( 'NONE', #114 ) ;
#177 = ORIENTED_EDGE ( 'NONE', *, *, #91, .T. ) ;
#178 = SHAPE_DEFINITION_REPRESENTATION ( #191, #67 ) ;
#179 = DIRECTION ( 'NONE',  ( 0.0000000000000000000, -1.000000000000000000, 0.0000000000000000000 ) ) ;
#180 = CC_DESIGN_APPROVAL ( #113, ( #105 ) ) ;
#181 = CARTESIAN_POINT ( 'NONE',  ( -5.000000000000000000, -4.999999999999999100, 2.000000000000000000 ) ) ;
#182 = COORDINATED_UNIVERSAL_TIME_OFFSET ( 5, 0, .BEHIND. ) ;
#183 = CARTESIAN_POINT ( 'NONE',  ( -5.000000000000000000, 5.000000000000000900, 2.000000000000000000 ) ) ;
#184 = EDGE_CURVE ( 'NONE', #214, #112, #21, .T. ) ;
#185 = APPROVAL_PERSON_ORGANIZATION ( #170, #92, #15 ) ;
#186 = LINE ( 'NONE', #211, #206 ) ;
#187 = DIRECTION ( 'NONE',  ( -0.0000000000000000000, -0.0000000000000000000, -1.000000000000000000 ) ) ;
#188 = SECURITY_CLASSIFICATION ( '', '', #121 ) ;
#189 = LINE ( 'NONE', #118, #7 ) ;
#190 = CC_DESIGN_DATE_AND_TIME_ASSIGNMENT ( #99, #164, ( #188 ) ) ;
#191 = PRODUCT_DEFINITION_SHAPE ( 'NONE', 'NONE',  #105 ) ;
#192 = CALENDAR_DATE ( 2017, 31, 1 ) ;
#193 = ORIENTED_EDGE ( 'NONE', *, *, #184, .F. ) ;
#194 = CLOSED_SHELL ( 'NONE', ( #87, #9, #75, #144, #51, #46 ) ) ;
#195 = CARTESIAN_POINT ( 'NONE',  ( 0.0000000000000000000, 0.0000000000000000000, 0.0000000000000000000 ) ) ;
#196 = LINE ( 'NONE', #73, #53 ) ;
#197 = LOCAL_TIME ( 10, 23, 19.00000000000000000, #182 ) ;
#198 = CARTESIAN_POINT ( 'NONE',  ( -5.000000000000000000, 5.000000000000000900, 2.000000000000000000 ) ) ;
#199 = AXIS2_PLACEMENT_3D ( 'NONE', #165, #76, #221 ) ;
#200 = DIRECTION ( 'NONE',  ( -0.0000000000000000000, 0.0000000000000000000, 1.000000000000000000 ) ) ;
#201 = CARTESIAN_POINT ( 'NONE',  ( -5.000000000000000000, 5.000000000000000900, 2.000000000000000000 ) ) ;
#202 = APPROVAL_DATE_TIME ( #153, #113 ) ;
#203 = DIRECTION ( 'NONE',  ( -1.000000000000000000, 0.0000000000000000000, 0.0000000000000000000 ) ) ;
#204 = ORIENTED_EDGE ( 'NONE', *, *, #93, .F. ) ;
#205 = ORIENTED_EDGE ( 'NONE', *, *, #11, .T. ) ;
#206 = VECTOR ( 'NONE', #227, 1000.000000000000000 ) ;
#207 = PERSON_AND_ORGANIZATION ( #65, #208 ) ;
#208 = ORGANIZATION ( 'UNSPECIFIED', 'UNSPECIFIED', '' ) ;
#209 = ORIENTED_EDGE ( 'NONE', *, *, #120, .F. ) ;
#210 = ORIENTED_EDGE ( 'NONE', *, *, #91, .F. ) ;
#211 = CARTESIAN_POINT ( 'NONE',  ( 5.000000000000000000, 5.000000000000000900, 2.000000000000000000 ) ) ;
#212 = VECTOR ( 'NONE', #104, 1000.000000000000000 ) ;
#213 = DIRECTION ( 'NONE',  ( 0.0000000000000000000, -0.0000000000000000000, -1.000000000000000000 ) ) ;
#214 = VERTEX_POINT ( 'NONE', #181 ) ;
#215 = DIRECTION ( 'NONE',  ( -0.0000000000000000000, 0.0000000000000000000, -1.000000000000000000 ) ) ;
#216 = FACE_OUTER_BOUND ( 'NONE', #82, .T. ) ;
#217 = DIRECTION ( 'NONE',  ( -0.0000000000000000000, 1.000000000000000000, -0.0000000000000000000 ) ) ;
#218 = PERSON_AND_ORGANIZATION_ROLE ( 'design_supplier' ) ;
#219 = DIRECTION ( 'NONE',  ( -0.0000000000000000000, -0.0000000000000000000, -1.000000000000000000 ) ) ;
#220 = DESIGN_CONTEXT ( 'detailed design', #57, 'design' ) ;
#221 = DIRECTION ( 'NONE',  ( -1.000000000000000000, 8.673617379884035500E-017, 0.0000000000000000000 ) ) ;
#222 = PERSON_AND_ORGANIZATION_ROLE ( 'creator' ) ;
#223 = LINE ( 'NONE', #201, #139 ) ;
#224 = APPROVAL_DATE_TIME ( #131, #158 ) ;
#225 = VECTOR ( 'NONE', #219, 1000.000000000000000 ) ;
#226 =( NAMED_UNIT ( * ) PLANE_ANGLE_UNIT ( ) SI_UNIT ( $, .RADIAN. ) );
#227 = DIRECTION ( 'NONE',  ( -0.0000000000000000000, -0.0000000000000000000, -1.000000000000000000 ) ) ;
#228 = CARTESIAN_POINT ( 'NONE',  ( -5.000000000000000000, 5.000000000000000900, 2.000000000000000000 ) ) ;
#229 = VERTEX_POINT ( 'NONE', #183 ) ;
#230 = DIRECTION ( 'NONE',  ( -1.000000000000000000, -0.0000000000000000000, -0.0000000000000000000 ) ) ;
#231 = LOCAL_TIME ( 10, 23, 19.00000000000000000, #89 ) ;
#232 = ORIENTED_EDGE ( 'NONE', *, *, #55, .F. ) ;
#233 = APPLICATION_CONTEXT ( 'configuration controlled 3d designs of mechanical parts and assemblies' ) ;
#234 = CARTESIAN_POINT ( 'NONE',  ( 5.000000000000000000, -5.000000000000000000, 2.000000000000000000 ) ) ;
#235 = CARTESIAN_POINT ( 'NONE',  ( -5.000000000000000000, 5.000000000000000900, 0.0000000000000000000 ) ) ;
#236 = DIRECTION ( 'NONE',  ( 1.000000000000000000, 0.0000000000000000000, 0.0000000000000000000 ) ) ;
#237 = CARTESIAN_POINT ( 'NONE',  ( -5.000000000000000000, -4.999999999999999100, 0.0000000000000000000 ) ) ;
ENDSEC;
END-ISO-10303-21;
