ISO-10303-21;
HEADER;
FILE_DESCRIPTION (( 'STEP AP203' ),
    '1' );
FILE_NAME ('Web Model 68550.STEP',
    '2017-02-01T13:31:12',
    ( '' ),
    ( '' ),
    'SwSTEP 2.0',
    'SolidWorks 2016',
    '' );
FILE_SCHEMA (( 'CONFIG_CONTROL_DESIGN' ));
ENDSEC;

DATA;
#1 = LINE ( 'NONE', #316, #52 ) ;
#2 = ORIENTED_EDGE ( 'NONE', *, *, #89, .T. ) ;
#3 = APPROVAL_STATUS ( 'not_yet_approved' ) ;
#4 = DIRECTION ( 'NONE',  ( 0.7071067811865474600, 0.0000000000000000000, 0.7071067811865474600 ) ) ;
#5 = FACE_OUTER_BOUND ( 'NONE', #151, .T. ) ;
#6 = ORIENTED_EDGE ( 'NONE', *, *, #79, .T. ) ;
#7 = APPROVAL_DATE_TIME ( #37, #169 ) ;
#8 = ADVANCED_FACE ( 'NONE', ( #192 ), #44, .F. ) ;
#9 = AXIS2_PLACEMENT_3D ( 'NONE', #73, #94, #292 ) ;
#10 = ORIENTED_EDGE ( 'NONE', *, *, #181, .T. ) ;
#11 = AXIS2_PLACEMENT_3D ( 'NONE', #136, #212, #313 ) ;
#12 = AXIS2_PLACEMENT_3D ( 'NONE', #246, #296, #251 ) ;
#13 = DIRECTION ( 'NONE',  ( -0.0000000000000000000, -0.0000000000000000000, 1.000000000000000000 ) ) ;
#14 = CARTESIAN_POINT ( 'NONE',  ( 0.0000000000000000000, 20.00000000000000000, 0.0000000000000000000 ) ) ;
#15 = ORIENTED_EDGE ( 'NONE', *, *, #79, .F. ) ;
#16 = CARTESIAN_POINT ( 'NONE',  ( -3.469446951953614200E-015, 20.00000000000000000, -20.00000000000000000 ) ) ;
#17 = LINE ( 'NONE', #187, #84 ) ;
#18 = AXIS2_PLACEMENT_3D ( 'NONE', #16, #138, #161 ) ;
#19 = CARTESIAN_POINT ( 'NONE',  ( 0.0000000000000000000, 20.00000000000000000, 0.0000000000000000000 ) ) ;
#20 = ORIENTED_EDGE ( 'NONE', *, *, #89, .F. ) ;
#21 = CARTESIAN_POINT ( 'NONE',  ( 19.99999999999999600, 0.0000000000000000000, -20.00000000000000000 ) ) ;
#22 = CARTESIAN_POINT ( 'NONE',  ( 0.0000000000000000000, 0.0000000000000000000, 0.0000000000000000000 ) ) ;
#23 = CC_DESIGN_APPROVAL ( #169, ( #108 ) ) ;
#24 = ORIENTED_EDGE ( 'NONE', *, *, #311, .F. ) ;
#25 = COORDINATED_UNIVERSAL_TIME_OFFSET ( 5, 0, .BEHIND. ) ;
#26 = PERSON ( 'UNSPECIFIED', 'UNSPECIFIED', 'UNSPECIFIED', ('UNSPECIFIED'), ('UNSPECIFIED'), ('UNSPECIFIED') ) ;
#27 = CLOSED_SHELL ( 'NONE', ( #129, #179, #307, #236, #132 ) ) ;
#28 = APPLICATION_PROTOCOL_DEFINITION ( 'international standard', 'config_control_design', 1994, #198 ) ;
#29 = DIRECTION ( 'NONE',  ( 0.0000000000000000000, 0.0000000000000000000, 1.000000000000000000 ) ) ;
#30 = FACE_OUTER_BOUND ( 'NONE', #85, .T. ) ;
#31 = MECHANICAL_CONTEXT ( 'NONE', #274, 'mechanical' ) ;
#32 = EDGE_LOOP ( 'NONE', ( #6, #61, #147, #146 ) ) ;
#33 = CARTESIAN_POINT ( 'NONE',  ( 0.0000000000000000000, 20.00000000000000000, 0.0000000000000000000 ) ) ;
#34 = ORIENTED_EDGE ( 'NONE', *, *, #64, .T. ) ;
#35 = FACE_OUTER_BOUND ( 'NONE', #289, .T. ) ;
#36 = ADVANCED_FACE ( 'NONE', ( #139 ), #160, .F. ) ;
#37 = DATE_AND_TIME ( #226, #195 ) ;
#38 = VECTOR ( 'NONE', #43, 1000.000000000000000 ) ;
#39 = EDGE_CURVE ( 'NONE', #229, #242, #17, .T. ) ;
#40 = CARTESIAN_POINT ( 'NONE',  ( -3.469446951953614200E-015, 0.0000000000000000000, -20.00000000000000000 ) ) ;
#41 = LOCAL_TIME ( 8, 31, 12.00000000000000000, #300 ) ;
#42 = DIRECTION ( 'NONE',  ( 0.0000000000000000000, 0.0000000000000000000, -1.000000000000000000 ) ) ;
#43 = DIRECTION ( 'NONE',  ( 1.000000000000000000, 0.0000000000000000000, 0.0000000000000000000 ) ) ;
#44 = PLANE ( 'NONE',  #11 ) ;
#45 = ORIENTED_EDGE ( 'NONE', *, *, #50, .T. ) ;
#46 = DIRECTION ( 'NONE',  ( 0.0000000000000000000, 0.0000000000000000000, -1.000000000000000000 ) ) ;
#47 = ADVANCED_BREP_SHAPE_REPRESENTATION ( 'Web Model 68550', ( #115, #170, #131 ), #56 ) ;
#48 = AXIS2_PLACEMENT_3D ( 'NONE', #239, #29, #126 ) ;
#49 = PLANE ( 'NONE',  #186 ) ;
#50 = EDGE_CURVE ( 'NONE', #229, #299, #165, .T. ) ;
#51 = DIRECTION ( 'NONE',  ( 0.0000000000000000000, -1.000000000000000000, 0.0000000000000000000 ) ) ;
#52 = VECTOR ( 'NONE', #271, 1000.000000000000000 ) ;
#53 = EDGE_LOOP ( 'NONE', ( #86, #213, #280, #82 ) ) ;
#54 = ORIENTED_EDGE ( 'NONE', *, *, #152, .T. ) ;
#55 = FACE_OUTER_BOUND ( 'NONE', #67, .T. ) ;
#56 =( GEOMETRIC_REPRESENTATION_CONTEXT ( 3 ) GLOBAL_UNCERTAINTY_ASSIGNED_CONTEXT ( ( #110 ) ) GLOBAL_UNIT_ASSIGNED_CONTEXT ( ( #177, #58, #275 ) ) REPRESENTATION_CONTEXT ( 'NONE', 'WORKASPACE' ) );
#57 = DATE_TIME_ROLE ( 'classification_date' ) ;
#58 =( NAMED_UNIT ( * ) PLANE_ANGLE_UNIT ( ) SI_UNIT ( $, .RADIAN. ) );
#59 = PERSON_AND_ORGANIZATION ( #26, #167 ) ;
#60 = DESIGN_CONTEXT ( 'detailed design', #198, 'design' ) ;
#61 = ORIENTED_EDGE ( 'NONE', *, *, #78, .F. ) ;
#62 = DATE_TIME_ROLE ( 'creation_date' ) ;
#63 = APPROVAL_STATUS ( 'not_yet_approved' ) ;
#64 = EDGE_CURVE ( 'NONE', #143, #202, #174, .T. ) ;
#65 = DIRECTION ( 'NONE',  ( 0.7071067811865475700, 0.0000000000000000000, 0.7071067811865474600 ) ) ;
#66 = VERTEX_POINT ( 'NONE', #185 ) ;
#67 = EDGE_LOOP ( 'NONE', ( #54, #75, #318, #285 ) ) ;
#68 = CALENDAR_DATE ( 2017, 1, 2 ) ;
#69 = PLANE ( 'NONE',  #12 ) ;
#70 = PERSON_AND_ORGANIZATION ( #26, #167 ) ;
#71 = VECTOR ( 'NONE', #98, 1000.000000000000000 ) ;
#72 = SHAPE_DEFINITION_REPRESENTATION ( #319, #47 ) ;
#73 = CARTESIAN_POINT ( 'NONE',  ( 0.0000000000000000000, 0.0000000000000000000, 0.0000000000000000000 ) ) ;
#74 = CARTESIAN_POINT ( 'NONE',  ( 19.99999999999999600, 20.00000000000000000, -20.00000000000000000 ) ) ;
#75 = ORIENTED_EDGE ( 'NONE', *, *, #39, .F. ) ;
#76 = DIRECTION ( 'NONE',  ( 0.0000000000000000000, -1.000000000000000000, 0.0000000000000000000 ) ) ;
#77 = CC_DESIGN_DATE_AND_TIME_ASSIGNMENT ( #130, #57, ( #191 ) ) ;
#78 = EDGE_CURVE ( 'NONE', #254, #120, #99, .T. ) ;
#79 = EDGE_CURVE ( 'NONE', #100, #120, #261, .T. ) ;
#80 = LINE ( 'NONE', #128, #168 ) ;
#81 = CC_DESIGN_PERSON_AND_ORGANIZATION_ASSIGNMENT ( #59, #102, ( #227 ) ) ;
#82 = ORIENTED_EDGE ( 'NONE', *, *, #273, .T. ) ;
#83 = LOCAL_TIME ( 8, 31, 12.00000000000000000, #25 ) ;
#84 = VECTOR ( 'NONE', #291, 1000.000000000000000 ) ;
#85 = EDGE_LOOP ( 'NONE', ( #111, #265, #176, #2 ) ) ;
#86 = ORIENTED_EDGE ( 'NONE', *, *, #267, .T. ) ;
#87 = EDGE_LOOP ( 'NONE', ( #155, #305, #281 ) ) ;
#88 = FACE_OUTER_BOUND ( 'NONE', #166, .T. ) ;
#89 = EDGE_CURVE ( 'NONE', #299, #91, #284, .T. ) ;
#90 = CARTESIAN_POINT ( 'NONE',  ( 20.00000000000000400, 20.00000000000000000, 0.0000000000000000000 ) ) ;
#91 = VERTEX_POINT ( 'NONE', #116 ) ;
#92 = DIRECTION ( 'NONE',  ( -0.0000000000000000000, -1.000000000000000000, -0.0000000000000000000 ) ) ;
#93 = LOCAL_TIME ( 8, 31, 12.00000000000000000, #259 ) ;
#94 = DIRECTION ( 'NONE',  ( 0.0000000000000000000, -1.000000000000000000, 0.0000000000000000000 ) ) ;
#95 = CARTESIAN_POINT ( 'NONE',  ( -3.469446951953614200E-015, 20.00000000000000000, -20.00000000000000000 ) ) ;
#96 = CARTESIAN_POINT ( 'NONE',  ( 0.0000000000000000000, 0.0000000000000000000, 0.0000000000000000000 ) ) ;
#97 = CARTESIAN_POINT ( 'NONE',  ( 0.0000000000000000000, 20.00000000000000000, -20.00000000000000400 ) ) ;
#98 = DIRECTION ( 'NONE',  ( 0.7071067811865475700, 0.0000000000000000000, 0.7071067811865474600 ) ) ;
#99 = LINE ( 'NONE', #95, #208 ) ;
#100 = VERTEX_POINT ( 'NONE', #114 ) ;
#101 = CC_DESIGN_PERSON_AND_ORGANIZATION_ASSIGNMENT ( #263, #204, ( #158 ) ) ;
#102 = PERSON_AND_ORGANIZATION_ROLE ( 'design_owner' ) ;
#103 = VECTOR ( 'NONE', #163, 1000.000000000000100 ) ;
#104 = DIRECTION ( 'NONE',  ( 1.000000000000000000, 0.0000000000000000000, 0.0000000000000000000 ) ) ;
#105 = PLANE ( 'NONE',  #48 ) ;
#106 = ORIENTED_EDGE ( 'NONE', *, *, #278, .T. ) ;
#107 = LINE ( 'NONE', #268, #184 ) ;
#108 = PRODUCT_DEFINITION_FORMATION_WITH_SPECIFIED_SOURCE ( 'ANY', '', #227, .NOT_KNOWN. ) ;
#109 = VECTOR ( 'NONE', #303, 1000.000000000000000 ) ;
#110 = UNCERTAINTY_MEASURE_WITH_UNIT (LENGTH_MEASURE( 1.000000000000000100E-005 ), #177, 'distance_accuracy_value', 'NONE');
#111 = ORIENTED_EDGE ( 'NONE', *, *, #220, .T. ) ;
#112 = PERSON_AND_ORGANIZATION ( #26, #167 ) ;
#113 = CARTESIAN_POINT ( 'NONE',  ( 20.00000000000000000, 20.00000000000000000, 0.0000000000000000000 ) ) ;
#114 = CARTESIAN_POINT ( 'NONE',  ( 19.99999999999999600, 0.0000000000000000000, -20.00000000000000000 ) ) ;
#115 = MANIFOLD_SOLID_BREP ( 'Extrude1', #27 ) ;
#116 = CARTESIAN_POINT ( 'NONE',  ( 20.00000000000000400, 0.0000000000000000000, 0.0000000000000000000 ) ) ;
#117 = AXIS2_PLACEMENT_3D ( 'NONE', #235, #154, #4 ) ;
#118 = DIRECTION ( 'NONE',  ( 1.000000000000000000, 0.0000000000000000000, 0.0000000000000000000 ) ) ;
#119 = FACE_OUTER_BOUND ( 'NONE', #172, .T. ) ;
#120 = VERTEX_POINT ( 'NONE', #40 ) ;
#121 = DIRECTION ( 'NONE',  ( -0.7071067811865474600, -0.0000000000000000000, -0.7071067811865474600 ) ) ;
#122 = LINE ( 'NONE', #96, #245 ) ;
#123 = PERSON_AND_ORGANIZATION ( #26, #167 ) ;
#124 = APPLICATION_PROTOCOL_DEFINITION ( 'international standard', 'config_control_design', 1994, #274 ) ;
#125 = LINE ( 'NONE', #194, #207 ) ;
#126 = DIRECTION ( 'NONE',  ( 1.000000000000000000, 0.0000000000000000000, -0.0000000000000000000 ) ) ;
#127 = FACE_OUTER_BOUND ( 'NONE', #87, .T. ) ;
#128 = CARTESIAN_POINT ( 'NONE',  ( -3.469446951953614200E-015, 0.0000000000000000000, -20.00000000000000000 ) ) ;
#129 = ADVANCED_FACE ( 'NONE', ( #55 ), #286, .F. ) ;
#130 = DATE_AND_TIME ( #283, #93 ) ;
#131 = AXIS2_PLACEMENT_3D ( 'NONE', #279, #150, #104 ) ;
#132 = ADVANCED_FACE ( 'NONE', ( #127 ), #134, .T. ) ;
#133 = EDGE_CURVE ( 'NONE', #308, #301, #107, .T. ) ;
#134 = PLANE ( 'NONE',  #9 ) ;
#135 = APPROVAL ( #3, 'UNSPECIFIED' ) ;
#136 = CARTESIAN_POINT ( 'NONE',  ( 20.00000000000000000, 20.00000000000000000, 0.0000000000000000000 ) ) ;
#137 = PERSON_AND_ORGANIZATION ( #26, #167 ) ;
#138 = DIRECTION ( 'NONE',  ( 0.7071067811865474600, 0.0000000000000000000, -0.7071067811865475700 ) ) ;
#139 = FACE_OUTER_BOUND ( 'NONE', #234, .T. ) ;
#140 = CARTESIAN_POINT ( 'NONE',  ( 0.0000000000000000000, 20.00000000000000000, 0.0000000000000000000 ) ) ;
#141 = DIRECTION ( 'NONE',  ( 0.0000000000000000000, -0.0000000000000000000, -1.000000000000000000 ) ) ;
#142 = VECTOR ( 'NONE', #121, 1000.000000000000100 ) ;
#143 = VERTEX_POINT ( 'NONE', #113 ) ;
#144 = DIRECTION ( 'NONE',  ( 0.0000000000000000000, 0.0000000000000000000, -1.000000000000000000 ) ) ;
#145 = VECTOR ( 'NONE', #209, 1000.000000000000000 ) ;
#146 = ORIENTED_EDGE ( 'NONE', *, *, #238, .T. ) ;
#147 = ORIENTED_EDGE ( 'NONE', *, *, #224, .F. ) ;
#148 = LINE ( 'NONE', #97, #103 ) ;
#149 = CC_DESIGN_APPROVAL ( #135, ( #158 ) ) ;
#150 = DIRECTION ( 'NONE',  ( 0.0000000000000000000, 0.0000000000000000000, 1.000000000000000000 ) ) ;
#151 = EDGE_LOOP ( 'NONE', ( #288, #24, #15 ) ) ;
#152 = EDGE_CURVE ( 'NONE', #301, #242, #122, .T. ) ;
#153 = APPROVAL_ROLE ( '' ) ;
#154 = DIRECTION ( 'NONE',  ( -0.7071067811865475700, 0.0000000000000000000, 0.7071067811865475700 ) ) ;
#155 = ORIENTED_EDGE ( 'NONE', *, *, #152, .F. ) ;
#156 = CALENDAR_DATE ( 2017, 1, 2 ) ;
#157 = APPROVAL ( #230, 'UNSPECIFIED' ) ;
#158 = PRODUCT_DEFINITION ( 'UNKNOWN', '', #108, #60 ) ;
#159 = FACE_OUTER_BOUND ( 'NONE', #32, .T. ) ;
#160 = PLANE ( 'NONE',  #18 ) ;
#161 = DIRECTION ( 'NONE',  ( -0.7071067811865475700, 0.0000000000000000000, -0.7071067811865474600 ) ) ;
#162 = PRODUCT_RELATED_PRODUCT_CATEGORY ( 'detail', '', ( #227 ) ) ;
#163 = DIRECTION ( 'NONE',  ( -0.7071067811865474600, -0.0000000000000000000, -0.7071067811865474600 ) ) ;
#164 = DIRECTION ( 'NONE',  ( -0.0000000000000000000, -1.000000000000000000, -0.0000000000000000000 ) ) ;
#165 = LINE ( 'NONE', #14, #38 ) ;
#166 = EDGE_LOOP ( 'NONE', ( #34, #233, #298 ) ) ;
#167 = ORGANIZATION ( 'UNSPECIFIED', 'UNSPECIFIED', '' ) ;
#168 = VECTOR ( 'NONE', #65, 1000.000000000000000 ) ;
#169 = APPROVAL ( #63, 'UNSPECIFIED' ) ;
#170 = MANIFOLD_SOLID_BREP ( 'Extrude2', #282 ) ;
#171 = ORIENTED_EDGE ( 'NONE', *, *, #311, .T. ) ;
#172 = EDGE_LOOP ( 'NONE', ( #106, #45, #182 ) ) ;
#173 = COORDINATED_UNIVERSAL_TIME_OFFSET ( 5, 0, .BEHIND. ) ;
#174 = LINE ( 'NONE', #211, #196 ) ;
#175 = CC_DESIGN_DATE_AND_TIME_ASSIGNMENT ( #180, #62, ( #158 ) ) ;
#176 = ORIENTED_EDGE ( 'NONE', *, *, #201, .F. ) ;
#177 =( LENGTH_UNIT ( ) NAMED_UNIT ( * ) SI_UNIT ( .MILLI., .METRE. ) );
#178 = DIRECTION ( 'NONE',  ( -0.0000000000000000000, -1.000000000000000000, -0.0000000000000000000 ) ) ;
#179 = ADVANCED_FACE ( 'NONE', ( #35 ), #69, .F. ) ;
#180 = DATE_AND_TIME ( #156, #83 ) ;
#181 = EDGE_CURVE ( 'NONE', #242, #91, #294, .T. ) ;
#182 = ORIENTED_EDGE ( 'NONE', *, *, #201, .T. ) ;
#183 = DATE_AND_TIME ( #188, #290 ) ;
#184 = VECTOR ( 'NONE', #92, 1000.000000000000000 ) ;
#185 = CARTESIAN_POINT ( 'NONE',  ( 20.00000000000000000, 0.0000000000000000000, 0.0000000000000000000 ) ) ;
#186 = AXIS2_PLACEMENT_3D ( 'NONE', #221, #51, #144 ) ;
#187 = CARTESIAN_POINT ( 'NONE',  ( 0.0000000000000000000, 20.00000000000000000, 0.0000000000000000000 ) ) ;
#188 = CALENDAR_DATE ( 2017, 1, 2 ) ;
#189 = DIRECTION ( 'NONE',  ( 0.0000000000000000000, -1.000000000000000000, 0.0000000000000000000 ) ) ;
#190 = CARTESIAN_POINT ( 'NONE',  ( -3.469446951953614200E-015, 20.00000000000000000, -20.00000000000000000 ) ) ;
#191 = SECURITY_CLASSIFICATION ( '', '', #258 ) ;
#192 = FACE_OUTER_BOUND ( 'NONE', #53, .T. ) ;
#193 = ORIENTED_EDGE ( 'NONE', *, *, #273, .F. ) ;
#194 = CARTESIAN_POINT ( 'NONE',  ( 20.00000000000000000, 0.0000000000000000000, 0.0000000000000000000 ) ) ;
#195 = LOCAL_TIME ( 8, 31, 12.00000000000000000, #314 ) ;
#196 = VECTOR ( 'NONE', #215, 1000.000000000000000 ) ;
#197 = PERSON_AND_ORGANIZATION ( #26, #167 ) ;
#198 = APPLICATION_CONTEXT ( 'configuration controlled 3d designs of mechanical parts and assemblies' ) ;
#199 = CC_DESIGN_PERSON_AND_ORGANIZATION_ASSIGNMENT ( #137, #232, ( #108 ) ) ;
#200 = LINE ( 'NONE', #272, #309 ) ;
#201 = EDGE_CURVE ( 'NONE', #299, #308, #148, .T. ) ;
#202 = VERTEX_POINT ( 'NONE', #74 ) ;
#203 = PERSON_AND_ORGANIZATION_ROLE ( 'creator' ) ;
#204 = PERSON_AND_ORGANIZATION_ROLE ( 'creator' ) ;
#205 = CARTESIAN_POINT ( 'NONE',  ( 0.0000000000000000000, 20.00000000000000000, -20.00000000000000400 ) ) ;
#206 = ADVANCED_FACE ( 'NONE', ( #5 ), #222, .T. ) ;
#207 = VECTOR ( 'NONE', #253, 1000.000000000000000 ) ;
#208 = VECTOR ( 'NONE', #244, 1000.000000000000000 ) ;
#209 = DIRECTION ( 'NONE',  ( -1.000000000000000000, -0.0000000000000000000, -0.0000000000000000000 ) ) ;
#210 = AXIS2_PLACEMENT_3D ( 'NONE', #216, #248, #42 ) ;
#211 = CARTESIAN_POINT ( 'NONE',  ( 20.00000000000000000, 20.00000000000000000, 0.0000000000000000000 ) ) ;
#212 = DIRECTION ( 'NONE',  ( -1.000000000000000000, 0.0000000000000000000, 1.734723475976807100E-016 ) ) ;
#213 = ORIENTED_EDGE ( 'NONE', *, *, #238, .F. ) ;
#214 = APPROVAL_DATE_TIME ( #183, #157 ) ;
#215 = DIRECTION ( 'NONE',  ( -1.734723475976807100E-016, 0.0000000000000000000, -1.000000000000000000 ) ) ;
#216 = CARTESIAN_POINT ( 'NONE',  ( 0.0000000000000000000, 20.00000000000000000, 0.0000000000000000000 ) ) ;
#217 = AXIS2_PLACEMENT_3D ( 'NONE', #19, #76, #141 ) ;
#218 = CARTESIAN_POINT ( 'NONE',  ( 0.0000000000000000000, 0.0000000000000000000, -20.00000000000000400 ) ) ;
#219 = ORIENTED_EDGE ( 'NONE', *, *, #78, .T. ) ;
#220 = EDGE_CURVE ( 'NONE', #91, #301, #287, .T. ) ;
#221 = CARTESIAN_POINT ( 'NONE',  ( 19.99999999999999600, 20.00000000000000000, -20.00000000000000000 ) ) ;
#222 = PLANE ( 'NONE',  #231 ) ;
#223 = VECTOR ( 'NONE', #118, 1000.000000000000000 ) ;
#224 = EDGE_CURVE ( 'NONE', #202, #254, #1, .T. ) ;
#225 = VECTOR ( 'NONE', #164, 1000.000000000000000 ) ;
#226 = CALENDAR_DATE ( 2017, 1, 2 ) ;
#227 = PRODUCT ( 'Web Model 68550', 'Web Model 68550', '', ( #31 ) ) ;
#228 = APPROVAL_ROLE ( '' ) ;
#229 = VERTEX_POINT ( 'NONE', #140 ) ;
#230 = APPROVAL_STATUS ( 'not_yet_approved' ) ;
#231 = AXIS2_PLACEMENT_3D ( 'NONE', #21, #189, #46 ) ;
#232 = PERSON_AND_ORGANIZATION_ROLE ( 'design_supplier' ) ;
#233 = ORIENTED_EDGE ( 'NONE', *, *, #224, .T. ) ;
#234 = EDGE_LOOP ( 'NONE', ( #171, #193, #241, #219 ) ) ;
#235 = CARTESIAN_POINT ( 'NONE',  ( 0.0000000000000000000, 20.00000000000000000, -20.00000000000000400 ) ) ;
#236 = ADVANCED_FACE ( 'NONE', ( #119 ), #270, .F. ) ;
#237 = CC_DESIGN_SECURITY_CLASSIFICATION ( #191, ( #108 ) ) ;
#238 = EDGE_CURVE ( 'NONE', #202, #100, #257, .T. ) ;
#239 = CARTESIAN_POINT ( 'NONE',  ( -3.469446951953614200E-015, 20.00000000000000000, -20.00000000000000000 ) ) ;
#240 = EDGE_CURVE ( 'NONE', #254, #143, #310, .T. ) ;
#241 = ORIENTED_EDGE ( 'NONE', *, *, #240, .F. ) ;
#242 = VERTEX_POINT ( 'NONE', #317 ) ;
#243 = CARTESIAN_POINT ( 'NONE',  ( -3.469446951953614200E-015, 0.0000000000000000000, -20.00000000000000000 ) ) ;
#244 = DIRECTION ( 'NONE',  ( -0.0000000000000000000, -1.000000000000000000, -0.0000000000000000000 ) ) ;
#245 = VECTOR ( 'NONE', #13, 1000.000000000000000 ) ;
#246 = CARTESIAN_POINT ( 'NONE',  ( 0.0000000000000000000, 20.00000000000000000, 0.0000000000000000000 ) ) ;
#247 = LINE ( 'NONE', #33, #109 ) ;
#248 = DIRECTION ( 'NONE',  ( 1.000000000000000000, -0.0000000000000000000, 0.0000000000000000000 ) ) ;
#249 = DIRECTION ( 'NONE',  ( -0.0000000000000000000, -1.000000000000000000, -0.0000000000000000000 ) ) ;
#250 = APPROVAL_PERSON_ORGANIZATION ( #112, #169, #153 ) ;
#251 = DIRECTION ( 'NONE',  ( -1.000000000000000000, 0.0000000000000000000, -0.0000000000000000000 ) ) ;
#252 = CARTESIAN_POINT ( 'NONE',  ( -3.469446951953614200E-015, 20.00000000000000000, -20.00000000000000000 ) ) ;
#253 = DIRECTION ( 'NONE',  ( -1.734723475976807100E-016, 0.0000000000000000000, -1.000000000000000000 ) ) ;
#254 = VERTEX_POINT ( 'NONE', #190 ) ;
#255 = ORIENTED_EDGE ( 'NONE', *, *, #50, .F. ) ;
#256 = PERSON_AND_ORGANIZATION ( #26, #167 ) ;
#257 = LINE ( 'NONE', #293, #225 ) ;
#258 = SECURITY_CLASSIFICATION_LEVEL ( 'unclassified' ) ;
#259 = COORDINATED_UNIVERSAL_TIME_OFFSET ( 5, 0, .BEHIND. ) ;
#260 = PLANE ( 'NONE',  #117 ) ;
#261 = LINE ( 'NONE', #243, #145 ) ;
#262 = APPROVAL_PERSON_ORGANIZATION ( #70, #135, #304 ) ;
#263 = PERSON_AND_ORGANIZATION ( #26, #167 ) ;
#264 = ADVANCED_FACE ( 'NONE', ( #88 ), #49, .F. ) ;
#265 = ORIENTED_EDGE ( 'NONE', *, *, #133, .F. ) ;
#266 = CARTESIAN_POINT ( 'NONE',  ( 0.0000000000000000000, 0.0000000000000000000, -20.00000000000000400 ) ) ;
#267 = EDGE_CURVE ( 'NONE', #66, #100, #125, .T. ) ;
#268 = CARTESIAN_POINT ( 'NONE',  ( 0.0000000000000000000, 20.00000000000000000, -20.00000000000000400 ) ) ;
#269 = APPROVAL_DATE_TIME ( #312, #135 ) ;
#270 = PLANE ( 'NONE',  #217 ) ;
#271 = DIRECTION ( 'NONE',  ( -1.000000000000000000, -0.0000000000000000000, -0.0000000000000000000 ) ) ;
#272 = CARTESIAN_POINT ( 'NONE',  ( 20.00000000000000000, 20.00000000000000000, 0.0000000000000000000 ) ) ;
#273 = EDGE_CURVE ( 'NONE', #143, #66, #200, .T. ) ;
#274 = APPLICATION_CONTEXT ( 'configuration controlled 3d designs of mechanical parts and assemblies' ) ;
#275 =( NAMED_UNIT ( * ) SI_UNIT ( $, .STERADIAN. ) SOLID_ANGLE_UNIT ( ) );
#276 = CC_DESIGN_PERSON_AND_ORGANIZATION_ASSIGNMENT ( #256, #302, ( #191 ) ) ;
#277 = CARTESIAN_POINT ( 'NONE',  ( 20.00000000000000400, 20.00000000000000000, 0.0000000000000000000 ) ) ;
#278 = EDGE_CURVE ( 'NONE', #308, #229, #247, .T. ) ;
#279 = CARTESIAN_POINT ( 'NONE',  ( 0.0000000000000000000, 0.0000000000000000000, 0.0000000000000000000 ) ) ;
#280 = ORIENTED_EDGE ( 'NONE', *, *, #64, .F. ) ;
#281 = ORIENTED_EDGE ( 'NONE', *, *, #181, .F. ) ;
#282 = CLOSED_SHELL ( 'NONE', ( #8, #306, #36, #264, #206 ) ) ;
#283 = CALENDAR_DATE ( 2017, 1, 2 ) ;
#284 = LINE ( 'NONE', #90, #321 ) ;
#285 = ORIENTED_EDGE ( 'NONE', *, *, #133, .T. ) ;
#286 = PLANE ( 'NONE',  #210 ) ;
#287 = LINE ( 'NONE', #218, #142 ) ;
#288 = ORIENTED_EDGE ( 'NONE', *, *, #267, .F. ) ;
#289 = EDGE_LOOP ( 'NONE', ( #10, #20, #255, #297 ) ) ;
#290 = LOCAL_TIME ( 8, 31, 12.00000000000000000, #173 ) ;
#291 = DIRECTION ( 'NONE',  ( -0.0000000000000000000, -1.000000000000000000, -0.0000000000000000000 ) ) ;
#292 = DIRECTION ( 'NONE',  ( 0.0000000000000000000, -0.0000000000000000000, -1.000000000000000000 ) ) ;
#293 = CARTESIAN_POINT ( 'NONE',  ( 19.99999999999999600, 20.00000000000000000, -20.00000000000000000 ) ) ;
#294 = LINE ( 'NONE', #22, #223 ) ;
#295 = CC_DESIGN_APPROVAL ( #157, ( #191 ) ) ;
#296 = DIRECTION ( 'NONE',  ( 0.0000000000000000000, 0.0000000000000000000, -1.000000000000000000 ) ) ;
#297 = ORIENTED_EDGE ( 'NONE', *, *, #39, .T. ) ;
#298 = ORIENTED_EDGE ( 'NONE', *, *, #240, .T. ) ;
#299 = VERTEX_POINT ( 'NONE', #277 ) ;
#300 = COORDINATED_UNIVERSAL_TIME_OFFSET ( 5, 0, .BEHIND. ) ;
#301 = VERTEX_POINT ( 'NONE', #266 ) ;
#302 = PERSON_AND_ORGANIZATION_ROLE ( 'classification_officer' ) ;
#303 = DIRECTION ( 'NONE',  ( -0.0000000000000000000, -0.0000000000000000000, 1.000000000000000000 ) ) ;
#304 = APPROVAL_ROLE ( '' ) ;
#305 = ORIENTED_EDGE ( 'NONE', *, *, #220, .F. ) ;
#306 = ADVANCED_FACE ( 'NONE', ( #159 ), #105, .F. ) ;
#307 = ADVANCED_FACE ( 'NONE', ( #30 ), #260, .F. ) ;
#308 = VERTEX_POINT ( 'NONE', #205 ) ;
#309 = VECTOR ( 'NONE', #178, 1000.000000000000000 ) ;
#310 = LINE ( 'NONE', #252, #71 ) ;
#311 = EDGE_CURVE ( 'NONE', #120, #66, #80, .T. ) ;
#312 = DATE_AND_TIME ( #68, #41 ) ;
#313 = DIRECTION ( 'NONE',  ( 1.734723475976807100E-016, 0.0000000000000000000, 1.000000000000000000 ) ) ;
#314 = COORDINATED_UNIVERSAL_TIME_OFFSET ( 5, 0, .BEHIND. ) ;
#315 = CC_DESIGN_PERSON_AND_ORGANIZATION_ASSIGNMENT ( #197, #203, ( #108 ) ) ;
#316 = CARTESIAN_POINT ( 'NONE',  ( -3.469446951953614200E-015, 20.00000000000000000, -20.00000000000000000 ) ) ;
#317 = CARTESIAN_POINT ( 'NONE',  ( 0.0000000000000000000, 0.0000000000000000000, 0.0000000000000000000 ) ) ;
#318 = ORIENTED_EDGE ( 'NONE', *, *, #278, .F. ) ;
#319 = PRODUCT_DEFINITION_SHAPE ( 'NONE', 'NONE',  #158 ) ;
#320 = APPROVAL_PERSON_ORGANIZATION ( #123, #157, #228 ) ;
#321 = VECTOR ( 'NONE', #249, 1000.000000000000000 ) ;
ENDSEC;
END-ISO-10303-21;
