ISO-10303-21;
HEADER;
FILE_DESCRIPTION (( 'STEP AP203' ),
    '1' );
FILE_NAME ('Web Model 68810_68810.step',
    '2017-03-06T17:59:38',
    ( '' ),
    ( '' ),
    'SwSTEP 2.0',
    'SolidWorks 2016',
    '' );
FILE_SCHEMA (( 'CONFIG_CONTROL_DESIGN' ));
ENDSEC;

DATA;
#1 = CARTESIAN_POINT ( 'NONE',  ( 16.00000000000000000, 1.959434878635765100E-015, -1.500000000000000000 ) ) ;
#2 = APPLICATION_PROTOCOL_DEFINITION ( 'international standard', 'config_control_design', 1994, #164 ) ;
#3 = CIRCLE ( 'NONE', #49, 16.00000000000000000 ) ;
#4 = DIRECTION ( 'NONE',  ( -1.000000000000000000, 0.0000000000000000000, 0.0000000000000000000 ) ) ;
#5 = ORIENTED_EDGE ( 'NONE', *, *, #14, .F. ) ;
#6 = AXIS2_PLACEMENT_3D ( 'NONE', #162, #89, #115 ) ;
#7 = EDGE_CURVE ( 'NONE', #96, #92, #77, .T. ) ;
#8 = LOCAL_TIME ( 12, 59, 38.00000000000000000, #170 ) ;
#9 = DIRECTION ( 'NONE',  ( 1.000000000000000000, 0.0000000000000000000, 0.0000000000000000000 ) ) ;
#10 = CALENDAR_DATE ( 2017, 6, 3 ) ;
#11 = CARTESIAN_POINT ( 'NONE',  ( 0.0000000000000000000, 0.0000000000000000000, 0.0000000000000000000 ) ) ;
#12 = PERSON_AND_ORGANIZATION_ROLE ( 'design_owner' ) ;
#13 = FACE_OUTER_BOUND ( 'NONE', #117, .T. ) ;
#14 = EDGE_CURVE ( 'NONE', #16, #96, #79, .T. ) ;
#15 = SECURITY_CLASSIFICATION ( '', '', #61 ) ;
#16 = VERTEX_POINT ( 'NONE', #88 ) ;
#17 = FACE_OUTER_BOUND ( 'NONE', #97, .T. ) ;
#18 = DIRECTION ( 'NONE',  ( 1.000000000000000000, 0.0000000000000000000, 0.0000000000000000000 ) ) ;
#19 = LOCAL_TIME ( 12, 59, 38.00000000000000000, #56 ) ;
#20 = DIRECTION ( 'NONE',  ( -0.0000000000000000000, -0.0000000000000000000, -1.000000000000000000 ) ) ;
#21 = CARTESIAN_POINT ( 'NONE',  ( 0.0000000000000000000, 0.0000000000000000000, 1.500000000000000000 ) ) ;
#22 = EDGE_CURVE ( 'NONE', #141, #92, #3, .T. ) ;
#23 = APPROVAL_PERSON_ORGANIZATION ( #137, #50, #110 ) ;
#24 = DIRECTION ( 'NONE',  ( 0.0000000000000000000, 0.0000000000000000000, 1.000000000000000000 ) ) ;
#25 = PERSON_AND_ORGANIZATION ( #65, #112 ) ;
#26 = PERSON_AND_ORGANIZATION ( #65, #112 ) ;
#27 = CC_DESIGN_DATE_AND_TIME_ASSIGNMENT ( #99, #124, ( #15 ) ) ;
#28 = DIRECTION ( 'NONE',  ( 1.000000000000000000, 0.0000000000000000000, -0.0000000000000000000 ) ) ;
#29 = APPROVAL_STATUS ( 'not_yet_approved' ) ;
#30 =( NAMED_UNIT ( * ) PLANE_ANGLE_UNIT ( ) SI_UNIT ( $, .RADIAN. ) );
#31 = CC_DESIGN_SECURITY_CLASSIFICATION ( #15, ( #119 ) ) ;
#32 = ORIENTED_EDGE ( 'NONE', *, *, #172, .F. ) ;
#33 = APPLICATION_PROTOCOL_DEFINITION ( 'international standard', 'config_control_design', 1994, #93 ) ;
#34 = EDGE_LOOP ( 'NONE', ( #108, #51 ) ) ;
#35 = PERSON_AND_ORGANIZATION ( #65, #112 ) ;
#36 = CIRCLE ( 'NONE', #6, 16.00000000000000000 ) ;
#37 = AXIS2_PLACEMENT_3D ( 'NONE', #136, #102, #109 ) ;
#38 = CC_DESIGN_PERSON_AND_ORGANIZATION_ASSIGNMENT ( #123, #135, ( #15 ) ) ;
#39 = UNCERTAINTY_MEASURE_WITH_UNIT (LENGTH_MEASURE( 1.000000000000000100E-005 ), #53, 'distance_accuracy_value', 'NONE');
#40 = LOCAL_TIME ( 12, 59, 38.00000000000000000, #126 ) ;
#41 = CARTESIAN_POINT ( 'NONE',  ( -16.00000000000000000, 0.0000000000000000000, 1.500000000000000000 ) ) ;
#42 = CALENDAR_DATE ( 2017, 6, 3 ) ;
#43 = DIRECTION ( 'NONE',  ( -0.0000000000000000000, -0.0000000000000000000, -1.000000000000000000 ) ) ;
#44 = PERSON_AND_ORGANIZATION_ROLE ( 'design_supplier' ) ;
#45 = CYLINDRICAL_SURFACE ( 'NONE', #81, 16.00000000000000000 ) ;
#46 = CLOSED_SHELL ( 'NONE', ( #106, #85, #156, #157 ) ) ;
#47 = MECHANICAL_CONTEXT ( 'NONE', #164, 'mechanical' ) ;
#48 = APPROVAL_DATE_TIME ( #169, #50 ) ;
#49 = AXIS2_PLACEMENT_3D ( 'NONE', #64, #140, #57 ) ;
#50 = APPROVAL ( #100, 'UNSPECIFIED' ) ;
#51 = ORIENTED_EDGE ( 'NONE', *, *, #165, .F. ) ;
#52 = PRODUCT ( 'Web Model 68810_68810', 'Web Model 68810_68810', '', ( #47 ) ) ;
#53 =( LENGTH_UNIT ( ) NAMED_UNIT ( * ) SI_UNIT ( .MILLI., .METRE. ) );
#54 = FACE_OUTER_BOUND ( 'NONE', #34, .T. ) ;
#55 = CC_DESIGN_APPROVAL ( #173, ( #133 ) ) ;
#56 = COORDINATED_UNIVERSAL_TIME_OFFSET ( 5, 0, .BEHIND. ) ;
#57 = DIRECTION ( 'NONE',  ( 1.000000000000000000, 0.0000000000000000000, 0.0000000000000000000 ) ) ;
#58 = DIRECTION ( 'NONE',  ( 0.0000000000000000000, 0.0000000000000000000, 1.000000000000000000 ) ) ;
#59 = CARTESIAN_POINT ( 'NONE',  ( -16.00000000000000000, 0.0000000000000000000, -1.500000000000000000 ) ) ;
#60 = PERSON_AND_ORGANIZATION ( #65, #112 ) ;
#61 = SECURITY_CLASSIFICATION_LEVEL ( 'unclassified' ) ;
#62 = PLANE ( 'NONE',  #95 ) ;
#63 = LINE ( 'NONE', #41, #71 ) ;
#64 = CARTESIAN_POINT ( 'NONE',  ( 0.0000000000000000000, 0.0000000000000000000, -1.500000000000000000 ) ) ;
#65 = PERSON ( 'UNSPECIFIED', 'UNSPECIFIED', 'UNSPECIFIED', ('UNSPECIFIED'), ('UNSPECIFIED'), ('UNSPECIFIED') ) ;
#66 = CC_DESIGN_PERSON_AND_ORGANIZATION_ASSIGNMENT ( #26, #87, ( #133 ) ) ;
#67 = ORIENTED_EDGE ( 'NONE', *, *, #153, .F. ) ;
#68 = CARTESIAN_POINT ( 'NONE',  ( 0.0000000000000000000, 0.0000000000000000000, 1.500000000000000000 ) ) ;
#69 = CC_DESIGN_DATE_AND_TIME_ASSIGNMENT ( #98, #174, ( #133 ) ) ;
#70 = APPROVAL_STATUS ( 'not_yet_approved' ) ;
#71 = VECTOR ( 'NONE', #43, 1000.000000000000000 ) ;
#72 = DIRECTION ( 'NONE',  ( -0.0000000000000000000, -0.0000000000000000000, -1.000000000000000000 ) ) ;
#73 = CARTESIAN_POINT ( 'NONE',  ( 16.00000000000000000, 1.959434878635765100E-015, 1.500000000000000000 ) ) ;
#74 = ORIENTED_EDGE ( 'NONE', *, *, #7, .T. ) ;
#75 = AXIS2_PLACEMENT_3D ( 'NONE', #175, #20, #83 ) ;
#76 = ORIENTED_EDGE ( 'NONE', *, *, #7, .F. ) ;
#77 = LINE ( 'NONE', #125, #120 ) ;
#78 = SHAPE_DEFINITION_REPRESENTATION ( #82, #152 ) ;
#79 = CIRCLE ( 'NONE', #37, 16.00000000000000000 ) ;
#80 = CALENDAR_DATE ( 2017, 6, 3 ) ;
#81 = AXIS2_PLACEMENT_3D ( 'NONE', #21, #72, #4 ) ;
#82 = PRODUCT_DEFINITION_SHAPE ( 'NONE', 'NONE',  #133 ) ;
#83 = DIRECTION ( 'NONE',  ( -1.000000000000000000, 0.0000000000000000000, 0.0000000000000000000 ) ) ;
#84 = DIRECTION ( 'NONE',  ( 0.0000000000000000000, 0.0000000000000000000, 1.000000000000000000 ) ) ;
#85 = ADVANCED_FACE ( 'NONE', ( #13 ), #147, .T. ) ;
#86 = CC_DESIGN_APPROVAL ( #168, ( #119 ) ) ;
#87 = PERSON_AND_ORGANIZATION_ROLE ( 'creator' ) ;
#88 = CARTESIAN_POINT ( 'NONE',  ( -16.00000000000000000, 0.0000000000000000000, 1.500000000000000000 ) ) ;
#89 = DIRECTION ( 'NONE',  ( 0.0000000000000000000, 0.0000000000000000000, 1.000000000000000000 ) ) ;
#90 = DATE_AND_TIME ( #10, #8 ) ;
#91 = COORDINATED_UNIVERSAL_TIME_OFFSET ( 5, 0, .BEHIND. ) ;
#92 = VERTEX_POINT ( 'NONE', #1 ) ;
#93 = APPLICATION_CONTEXT ( 'configuration controlled 3d designs of mechanical parts and assemblies' ) ;
#94 = CALENDAR_DATE ( 2017, 6, 3 ) ;
#95 = AXIS2_PLACEMENT_3D ( 'NONE', #68, #149, #134 ) ;
#96 = VERTEX_POINT ( 'NONE', #73 ) ;
#97 = EDGE_LOOP ( 'NONE', ( #32, #74, #167, #67 ) ) ;
#98 = DATE_AND_TIME ( #94, #40 ) ;
#99 = DATE_AND_TIME ( #80, #19 ) ;
#100 = APPROVAL_STATUS ( 'not_yet_approved' ) ;
#101 = APPROVAL_ROLE ( '' ) ;
#102 = DIRECTION ( 'NONE',  ( 0.0000000000000000000, 0.0000000000000000000, 1.000000000000000000 ) ) ;
#103 = APPROVAL_DATE_TIME ( #90, #173 ) ;
#104 = CIRCLE ( 'NONE', #105, 16.00000000000000000 ) ;
#105 = AXIS2_PLACEMENT_3D ( 'NONE', #122, #24, #9 ) ;
#106 = ADVANCED_FACE ( 'NONE', ( #17 ), #45, .T. ) ;
#107 = CC_DESIGN_PERSON_AND_ORGANIZATION_ASSIGNMENT ( #25, #146, ( #119 ) ) ;
#108 = ORIENTED_EDGE ( 'NONE', *, *, #22, .F. ) ;
#109 = DIRECTION ( 'NONE',  ( 1.000000000000000000, 0.0000000000000000000, 0.0000000000000000000 ) ) ;
#110 = APPROVAL_ROLE ( '' ) ;
#111 = CC_DESIGN_PERSON_AND_ORGANIZATION_ASSIGNMENT ( #35, #44, ( #119 ) ) ;
#112 = ORGANIZATION ( 'UNSPECIFIED', 'UNSPECIFIED', '' ) ;
#113 = PLANE ( 'NONE',  #130 ) ;
#114 = APPROVAL_DATE_TIME ( #142, #168 ) ;
#115 = DIRECTION ( 'NONE',  ( 1.000000000000000000, 0.0000000000000000000, 0.0000000000000000000 ) ) ;
#116 = ORIENTED_EDGE ( 'NONE', *, *, #22, .T. ) ;
#117 = EDGE_LOOP ( 'NONE', ( #76, #5, #139, #116 ) ) ;
#118 = PERSON_AND_ORGANIZATION ( #65, #112 ) ;
#119 = PRODUCT_DEFINITION_FORMATION_WITH_SPECIFIED_SOURCE ( 'ANY', '', #52, .NOT_KNOWN. ) ;
#120 = VECTOR ( 'NONE', #127, 1000.000000000000000 ) ;
#121 = AXIS2_PLACEMENT_3D ( 'NONE', #11, #58, #18 ) ;
#122 = CARTESIAN_POINT ( 'NONE',  ( 0.0000000000000000000, 0.0000000000000000000, -1.500000000000000000 ) ) ;
#123 = PERSON_AND_ORGANIZATION ( #65, #112 ) ;
#124 = DATE_TIME_ROLE ( 'classification_date' ) ;
#125 = CARTESIAN_POINT ( 'NONE',  ( 16.00000000000000000, 1.959434878635765100E-015, 1.500000000000000000 ) ) ;
#126 = COORDINATED_UNIVERSAL_TIME_OFFSET ( 5, 0, .BEHIND. ) ;
#127 = DIRECTION ( 'NONE',  ( -0.0000000000000000000, -0.0000000000000000000, -1.000000000000000000 ) ) ;
#128 =( NAMED_UNIT ( * ) SI_UNIT ( $, .STERADIAN. ) SOLID_ANGLE_UNIT ( ) );
#129 = APPROVAL_PERSON_ORGANIZATION ( #118, #168, #159 ) ;
#130 = AXIS2_PLACEMENT_3D ( 'NONE', #160, #84, #28 ) ;
#131 = LOCAL_TIME ( 12, 59, 38.00000000000000000, #144 ) ;
#132 = LOCAL_TIME ( 12, 59, 38.00000000000000000, #91 ) ;
#133 = PRODUCT_DEFINITION ( 'UNKNOWN', '', #119, #154 ) ;
#134 = DIRECTION ( 'NONE',  ( 1.000000000000000000, 0.0000000000000000000, -0.0000000000000000000 ) ) ;
#135 = PERSON_AND_ORGANIZATION_ROLE ( 'classification_officer' ) ;
#136 = CARTESIAN_POINT ( 'NONE',  ( 0.0000000000000000000, 0.0000000000000000000, 1.500000000000000000 ) ) ;
#137 = PERSON_AND_ORGANIZATION ( #65, #112 ) ;
#138 = MANIFOLD_SOLID_BREP ( 'Boss-Extrude1', #46 ) ;
#139 = ORIENTED_EDGE ( 'NONE', *, *, #153, .T. ) ;
#140 = DIRECTION ( 'NONE',  ( 0.0000000000000000000, 0.0000000000000000000, 1.000000000000000000 ) ) ;
#141 = VERTEX_POINT ( 'NONE', #59 ) ;
#142 = DATE_AND_TIME ( #148, #132 ) ;
#143 =( GEOMETRIC_REPRESENTATION_CONTEXT ( 3 ) GLOBAL_UNCERTAINTY_ASSIGNED_CONTEXT ( ( #39 ) ) GLOBAL_UNIT_ASSIGNED_CONTEXT ( ( #53, #30, #128 ) ) REPRESENTATION_CONTEXT ( 'NONE', 'WORKASPACE' ) );
#144 = COORDINATED_UNIVERSAL_TIME_OFFSET ( 5, 0, .BEHIND. ) ;
#145 = APPROVAL_PERSON_ORGANIZATION ( #60, #173, #101 ) ;
#146 = PERSON_AND_ORGANIZATION_ROLE ( 'creator' ) ;
#147 = CYLINDRICAL_SURFACE ( 'NONE', #75, 16.00000000000000000 ) ;
#148 = CALENDAR_DATE ( 2017, 6, 3 ) ;
#149 = DIRECTION ( 'NONE',  ( 0.0000000000000000000, 0.0000000000000000000, 1.000000000000000000 ) ) ;
#150 = EDGE_LOOP ( 'NONE', ( #155, #166 ) ) ;
#151 = PRODUCT_RELATED_PRODUCT_CATEGORY ( 'detail', '', ( #52 ) ) ;
#152 = ADVANCED_BREP_SHAPE_REPRESENTATION ( 'Web Model 68810_68810', ( #138, #121 ), #143 ) ;
#153 = EDGE_CURVE ( 'NONE', #16, #141, #63, .T. ) ;
#154 = DESIGN_CONTEXT ( 'detailed design', #93, 'design' ) ;
#155 = ORIENTED_EDGE ( 'NONE', *, *, #14, .T. ) ;
#156 = ADVANCED_FACE ( 'NONE', ( #163 ), #62, .T. ) ;
#157 = ADVANCED_FACE ( 'NONE', ( #54 ), #113, .F. ) ;
#158 = PERSON_AND_ORGANIZATION ( #65, #112 ) ;
#159 = APPROVAL_ROLE ( '' ) ;
#160 = CARTESIAN_POINT ( 'NONE',  ( 0.0000000000000000000, 0.0000000000000000000, -1.500000000000000000 ) ) ;
#161 = CC_DESIGN_APPROVAL ( #50, ( #15 ) ) ;
#162 = CARTESIAN_POINT ( 'NONE',  ( 0.0000000000000000000, 0.0000000000000000000, 1.500000000000000000 ) ) ;
#163 = FACE_OUTER_BOUND ( 'NONE', #150, .T. ) ;
#164 = APPLICATION_CONTEXT ( 'configuration controlled 3d designs of mechanical parts and assemblies' ) ;
#165 = EDGE_CURVE ( 'NONE', #92, #141, #104, .T. ) ;
#166 = ORIENTED_EDGE ( 'NONE', *, *, #172, .T. ) ;
#167 = ORIENTED_EDGE ( 'NONE', *, *, #165, .T. ) ;
#168 = APPROVAL ( #70, 'UNSPECIFIED' ) ;
#169 = DATE_AND_TIME ( #42, #131 ) ;
#170 = COORDINATED_UNIVERSAL_TIME_OFFSET ( 5, 0, .BEHIND. ) ;
#171 = CC_DESIGN_PERSON_AND_ORGANIZATION_ASSIGNMENT ( #158, #12, ( #52 ) ) ;
#172 = EDGE_CURVE ( 'NONE', #96, #16, #36, .T. ) ;
#173 = APPROVAL ( #29, 'UNSPECIFIED' ) ;
#174 = DATE_TIME_ROLE ( 'creation_date' ) ;
#175 = CARTESIAN_POINT ( 'NONE',  ( 0.0000000000000000000, 0.0000000000000000000, 1.500000000000000000 ) ) ;
ENDSEC;
END-ISO-10303-21;
