  0
SECTION
  2
HEADER
  9
$ACADVER
  1
AC1009
  9
$INSBASE
 10
0.0
 20
0.0
 30
0.0
  9
$EXTMIN
 10
0.170969
 20
0.459762
 30
0.0
  9
$EXTMAX
 10
16.215212
 20
10.541477
 30
0.34938
  9
$LIMMIN
 10
0.0
 20
0.0
  9
$LIMMAX
 10
17.0
 20
11.0
  9
$ORTHOMODE
 70
     1
  9
$REGENMODE
 70
     1
  9
$FILLMODE
 70
     1
  9
$QTEXTMODE
 70
     0
  9
$MIRRTEXT
 70
     0
  9
$DRAGMODE
 70
     2
  9
$LTSCALE
 40
0.375
  9
$OSMODE
 70
    39
  9
$ATTMODE
 70
     1
  9
$TEXTSIZE
 40
0.126416
  9
$TRACEWID
 40
0.05
  9
$TEXTSTYLE
  7
STANDARD
  9
$CLAYER
  8
350220
  9
$CELTYPE
  6
BYLAYER
  9
$CECOLOR
 62
   256
  9
$DIMSCALE
 40
1.0
  9
$DIMASZ
 40
0.18
  9
$DIMEXO
 40
0.03
  9
$DIMDLI
 40
0.38
  9
$DIMRND
 40
0.0
  9
$DIMDLE
 40
0.0
  9
$DIMEXE
 40
0.06
  9
$DIMTP
 40
0.0
  9
$DIMTM
 40
0.0
  9
$DIMTXT
 40
0.1
  9
$DIMCEN
 40
0.07
  9
$DIMTSZ
 40
0.0
  9
$DIMTOL
 70
     0
  9
$DIMLIM
 70
     0
  9
$DIMTIH
 70
     1
  9
$DIMTOH
 70
     1
  9
$DIMSE1
 70
     0
  9
$DIMSE2
 70
     0
  9
$DIMTAD
 70
     0
  9
$DIMZIN
 70
     0
  9
$DIMBLK
  1

  9
$DIMASO
 70
     0
  9
$DIMSHO
 70
     0
  9
$DIMPOST
  1

  9
$DIMAPOST
  1

  9
$DIMALT
 70
     0
  9
$DIMALTD
 70
     2
  9
$DIMALTF
 40
25.4
  9
$DIMLFAC
 40
1.0
  9
$DIMTOFL
 70
     0
  9
$DIMTVP
 40
0.0
  9
$DIMTIX
 70
     0
  9
$DIMSOXD
 70
     0
  9
$DIMSAH
 70
     0
  9
$DIMBLK1
  1

  9
$DIMBLK2
  1

  9
$DIMSTYLE
  2
KEVIN
  9
$DIMCLRD
 70
     0
  9
$DIMCLRE
 70
     0
  9
$DIMCLRT
 70
     0
  9
$DIMTFAC
 40
1.0
  9
$DIMGAP
 40
0.09
  9
$LUNITS
 70
     2
  9
$LUPREC
 70
     4
  9
$SKETCHINC
 40
0.005
  9
$FILLETRAD
 40
0.0
  9
$AUNITS
 70
     0
  9
$AUPREC
 70
     0
  9
$MENU
  1
C:\R13\WIN\SUPPORT\ACAD
  9
$ELEVATION
 40
0.0
  9
$PELEVATION
 40
0.0
  9
$THICKNESS
 40
0.0
  9
$LIMCHECK
 70
     0
  9
$BLIPMODE
 70
     1
  9
$CHAMFERA
 40
0.3
  9
$CHAMFERB
 40
0.3
  9
$SKPOLY
 70
     0
  9
$TDCREATE
 40
2449547.531669
  9
$TDUPDATE
 40
2451186.473401
  9
$TDINDWG
 40
0.550615
  9
$TDUSRTIMER
 40
0.550615
  9
$USRTIMER
 70
     1
  9
$ANGBASE
 50
0.0
  9
$ANGDIR
 70
     0
  9
$PDMODE
 70
     0
  9
$PDSIZE
 40
0.0
  9
$PLINEWID
 40
0.0
  9
$COORDS
 70
     2
  9
$SPLFRAME
 70
     0
  9
$SPLINETYPE
 70
     6
  9
$SPLINESEGS
 70
     8
  9
$ATTDIA
 70
     0
  9
$ATTREQ
 70
     1
  9
$HANDLING
 70
     1
  9
$HANDSEED
  5
5E63
  9
$SURFTAB1
 70
     6
  9
$SURFTAB2
 70
     6
  9
$SURFTYPE
 70
     6
  9
$SURFU
 70
     6
  9
$SURFV
 70
     6
  9
$UCSNAME
  2

  9
$UCSORG
 10
4.347998
 20
5.806352
 30
0.0
  9
$UCSXDIR
 10
1.0
 20
0.0
 30
0.0
  9
$UCSYDIR
 10
0.0
 20
1.0
 30
0.0
  9
$PUCSNAME
  2

  9
$PUCSORG
 10
0.0
 20
0.0
 30
0.0
  9
$PUCSXDIR
 10
1.0
 20
0.0
 30
0.0
  9
$PUCSYDIR
 10
0.0
 20
1.0
 30
0.0
  9
$USERI1
 70
     0
  9
$USERI2
 70
     0
  9
$USERI3
 70
     0
  9
$USERI4
 70
     0
  9
$USERI5
 70
     0
  9
$USERR1
 40
0.0
  9
$USERR2
 40
0.0
  9
$USERR3
 40
0.0
  9
$USERR4
 40
0.0
  9
$USERR5
 40
0.0
  9
$WORLDVIEW
 70
     1
  9
$SHADEDGE
 70
     3
  9
$SHADEDIF
 70
    70
  9
$TILEMODE
 70
     1
  9
$MAXACTVP
 70
    16
  9
$PLIMCHECK
 70
     0
  9
$PEXTMIN
 10
1.000000E+020
 20
1.000000E+020
 30
1.000000E+020
  9
$PEXTMAX
 10
-1.000000E+020
 20
-1.000000E+020
 30
-1.000000E+020
  9
$PLIMMIN
 10
0.0
 20
0.0
  9
$PLIMMAX
 10
12.0
 20
9.0
  9
$UNITMODE
 70
     0
  9
$VISRETAIN
 70
     0
  9
$PLINEGEN
 70
     0
  9
$PSLTSCALE
 70
     0
  0
ENDSEC
  0
SECTION
  2
TABLES
  0
TABLE
  2
VPORT
 70
     4
  0
VPORT
  2
*ACTIVE
 70
     0
 10
0.0
 20
0.0
 11
1.0
 21
1.0
 12
8.192991
 22
5.500671
 13
0.0
 23
0.0
 14
0.005
 24
0.005
 15
0.25
 25
0.25
 16
0.0
 26
0.0
 36
1.0
 17
0.0
 27
0.0
 37
0.0
 40
10.242903
 41
1.901857
 42
50.0
 43
0.0
 44
0.0
 50
0.0
 51
0.0
 71
     0
 72
  1000
 73
     1
 74
     0
 75
     0
 76
     0
 77
     0
 78
     0
  0
ENDTAB
  0
TABLE
  2
LTYPE
 70
     5
  0
LTYPE
  2
CONTINUOUS
 70
     0
  3
Solid line
 72
    65
 73
     0
 40
0.0
  0
LTYPE
  2
HIDDEN2
 70
     0
  3
_ _ _ _ _ _ _ _ _ _ _ _ _ _ _ _ _ _ _ _ _ _ _ _
 72
    65
 73
     2
 40
0.1875
 49
0.125
 49
-0.0625
  0
LTYPE
  2
CENTER2
 70
     0
  3
___ _ ___ _ ___ _ ___ _ ___ _ ___ _ ___ _ ___ _
 72
    65
 73
     4
 40
1.125
 49
0.75
 49
-0.125
 49
0.125
 49
-0.125
  0
ENDTAB
  0
TABLE
  2
LAYER
 70
     6
  0
LAYER
  2
0
 70
     0
 62
     7
  6
CONTINUOUS
  0
LAYER
  2
BORDER
 70
     0
 62
     7
  6
CONTINUOUS
  0
LAYER
  2
D1
 70
     0
 62
     7
  6
CONTINUOUS
  0
LAYER
  2
AME_FRZ
 70
     0
 62
     7
  6
CONTINUOUS
  0
LAYER
  2
350220
 70
     0
 62
     7
  6
CONTINUOUS
  0
ENDTAB
  0
TABLE
  2
STYLE
 70
     1
  0
STYLE
  2
STANDARD
 70
     0
 40
0.0
 41
1.0
 50
0.0
 71
     0
 42
0.126416
  3
txt
  4

  0
ENDTAB
  0
TABLE
  2
VIEW
 70
     0
  0
ENDTAB
  0
TABLE
  2
UCS
 70
     0
  0
ENDTAB
  0
TABLE
  2
APPID
 70
     7
  0
APPID
  2
ACAD
 70
     0
  0
APPID
  2
AME_SOL
 70
     0
  0
APPID
  2
CONTENTTABDATA
 70
     0
  0
APPID
  2
CONTENTCURRENTTAB
 70
     0
  0
APPID
  2
CONTENTBLOCKDESCRIPTION
 70
     0
  0
APPID
  2
CONTENTLONGBLOCKNAME
 70
     0
  0
APPID
  2
CONTENTBLOCKICON
 70
     0
  0
ENDTAB
  0
TABLE
  2
DIMSTYLE
 70
     2
  0
DIMSTYLE
  2
KEVIN
 70
     0
  3

  4

  5

  6

  7

 40
1.0
 41
0.18
 42
0.03
 43
0.38
 44
0.06
 45
0.0
 46
0.0
 47
0.0
 48
0.0
140
0.1
141
0.07
142
0.0
143
25.4
144
1.0
145
0.0
146
1.0
147
0.09
 71
     0
 72
     0
 73
     1
 74
     1
 75
     0
 76
     0
 77
     0
 78
     0
170
     0
171
     2
172
     0
173
     0
174
     0
175
     0
176
     0
177
     0
178
     0
  0
ENDTAB
  0
ENDSEC
  0
SECTION
  2
BLOCKS
  0
BLOCK
  8
0
  2
$MODEL_SPACE
 70
     0
 10
0.0
 20
0.0
 30
0.0
  3
$MODEL_SPACE
  1

  0
ENDBLK
  5
29
  8
0
  0
BLOCK
 67
     1
  8
0
  2
$PAPER_SPACE
 70
     0
 10
0.0
 20
0.0
 30
0.0
  3
$PAPER_SPACE
  1

  0
ENDBLK
  5
27
 67
     1
  8
0
  0
BLOCK
  8
0
  2
AME_NIL
 70
     0
 10
0.0
 20
0.0
 30
0.0
  3
AME_NIL
  1
AME_NIL
  0
ENDBLK
  5
13B
  8
0
  0
BLOCK
  8
0
  2
AME_SOL
 70
     0
 10
0.0
 20
0.0
 30
0.0
  3
AME_SOL
  1
AME_SOL
  0
ENDBLK
  5
13E
  8
0
  0
BLOCK
  8
0
  2
*X2
 70
     1
 10
0.0
 20
0.0
 30
0.0
  3
*X2
  1
AME_SOL
  0
LINE
  5
5CFA
  8
0
 62
     0
 10
6.123992
 20
4.643434
 30
0.0
 11
6.996504
 21
5.515945
 31
0.0
  0
LINE
  5
5CFB
  8
0
 62
     0
 10
6.996504
 20
5.515945
 30
0.0
 11
7.927402
 21
6.446843
 31
0.0
  0
LINE
  5
5CFC
  8
0
 62
     0
 10
6.123992
 20
4.798113
 30
0.0
 11
6.841824
 21
5.515945
 31
0.0
  0
LINE
  5
5CFD
  8
0
 62
     0
 10
6.841824
 20
5.515945
 30
0.0
 11
7.883889
 21
6.55801
 31
0.0
  0
LINE
  5
5CFE
  8
0
 62
     0
 10
6.123992
 20
4.952793
 30
0.0
 11
6.687144
 21
5.515945
 31
0.0
  0
LINE
  5
5CFF
  8
0
 62
     0
 10
6.687144
 20
5.515945
 30
0.0
 11
7.836422
 21
6.665222
 31
0.0
  0
LINE
  5
5D00
  8
0
 62
     0
 10
6.123992
 20
5.107472
 30
0.0
 11
6.532465
 21
5.515945
 31
0.0
  0
LINE
  5
5D01
  8
0
 62
     0
 10
6.532465
 20
5.515945
 30
0.0
 11
7.785194
 21
6.768675
 31
0.0
  0
LINE
  5
5D02
  8
0
 62
     0
 10
6.123992
 20
5.262152
 30
0.0
 11
6.377785
 21
5.515945
 31
0.0
  0
LINE
  5
5D03
  8
0
 62
     0
 10
6.377785
 20
5.515945
 30
0.0
 11
7.780737
 21
6.918897
 31
0.0
  0
LINE
  5
5D04
  8
0
 62
     0
 10
6.123992
 20
5.416832
 30
0.0
 11
6.223105
 21
5.515945
 31
0.0
  0
LINE
  5
5D05
  8
0
 62
     0
 10
6.223105
 20
5.515945
 30
0.0
 11
7.640425
 21
6.933265
 31
0.0
  0
LINE
  5
5D06
  8
0
 62
     0
 10
6.123992
 20
5.571511
 30
0.0
 11
7.485746
 21
6.933265
 31
0.0
  0
LINE
  5
5D07
  8
0
 62
     0
 10
6.123992
 20
5.726191
 30
0.0
 11
7.331066
 21
6.933265
 31
0.0
  0
LINE
  5
5D08
  8
0
 62
     0
 10
6.123992
 20
5.88087
 30
0.0
 11
7.176387
 21
6.933265
 31
0.0
  0
LINE
  5
5D09
  8
0
 62
     0
 10
6.123992
 20
6.03555
 30
0.0
 11
7.021707
 21
6.933265
 31
0.0
  0
LINE
  5
5D0A
  8
0
 62
     0
 10
6.123992
 20
6.19023
 30
0.0
 11
6.867027
 21
6.933265
 31
0.0
  0
LINE
  5
5D0B
  8
0
 62
     0
 10
6.123992
 20
6.344909
 30
0.0
 11
6.712348
 21
6.933265
 31
0.0
  0
LINE
  5
5D0C
  8
0
 62
     0
 10
6.123992
 20
6.499589
 30
0.0
 11
6.557668
 21
6.933265
 31
0.0
  0
LINE
  5
5D0D
  8
0
 62
     0
 10
6.123992
 20
6.654268
 30
0.0
 11
6.402989
 21
6.933265
 31
0.0
  0
LINE
  5
5D0E
  8
0
 62
     0
 10
6.123992
 20
6.808948
 30
0.0
 11
6.248309
 21
6.933265
 31
0.0
  0
LINE
  5
5D0F
  8
0
 62
     0
 10
6.123992
 20
4.488754
 30
0.0
 11
7.151183
 21
5.515945
 31
0.0
  0
LINE
  5
5D10
  8
0
 62
     0
 10
7.151183
 20
5.515945
 30
0.0
 11
7.966725
 21
6.331487
 31
0.0
  0
LINE
  5
5D11
  8
0
 62
     0
 10
6.123992
 20
4.334074
 30
0.0
 11
7.305863
 21
5.515945
 31
0.0
  0
LINE
  5
5D12
  8
0
 62
     0
 10
7.305863
 20
5.515945
 30
0.0
 11
8.001569
 21
6.211651
 31
0.0
  0
LINE
  5
5D13
  8
0
 62
     0
 10
6.123992
 20
4.179395
 30
0.0
 11
7.460542
 21
5.515945
 31
0.0
  0
LINE
  5
5D14
  8
0
 62
     0
 10
7.460542
 20
5.515945
 30
0.0
 11
8.031579
 21
6.086982
 31
0.0
  0
LINE
  5
5D15
  8
0
 62
     0
 10
6.197902
 20
4.098625
 30
0.0
 11
7.615222
 21
5.515945
 31
0.0
  0
LINE
  5
5D16
  8
0
 62
     0
 10
7.615222
 20
5.515945
 30
0.0
 11
8.056315
 21
5.957038
 31
0.0
  0
LINE
  5
5D17
  8
0
 62
     0
 10
6.352582
 20
4.098625
 30
0.0
 11
7.769902
 21
5.515945
 31
0.0
  0
LINE
  5
5D18
  8
0
 62
     0
 10
7.769902
 20
5.515945
 30
0.0
 11
8.075219
 21
5.821263
 31
0.0
  0
LINE
  5
5D19
  8
0
 62
     0
 10
6.507261
 20
4.098625
 30
0.0
 11
7.924581
 21
5.515945
 31
0.0
  0
LINE
  5
5D1A
  8
0
 62
     0
 10
7.924581
 20
5.515945
 30
0.0
 11
8.08758
 21
5.678944
 31
0.0
  0
LINE
  5
5D1B
  8
0
 62
     0
 10
6.661941
 20
4.098625
 30
0.0
 11
8.079261
 21
5.515945
 31
0.0
  0
LINE
  5
5D1C
  8
0
 62
     0
 10
8.079261
 20
5.515945
 30
0.0
 11
8.09246
 21
5.529144
 31
0.0
  0
LINE
  5
5D1D
  8
0
 62
     0
 10
6.81662
 20
4.098625
 30
0.0
 11
8.088587
 21
5.370592
 31
0.0
  0
LINE
  5
5D1E
  8
0
 62
     0
 10
6.9713
 20
4.098625
 30
0.0
 11
8.074167
 21
5.201492
 31
0.0
  0
LINE
  5
5D1F
  8
0
 62
     0
 10
7.12598
 20
4.098625
 30
0.0
 11
8.046519
 21
5.019165
 31
0.0
  0
LINE
  5
5D20
  8
0
 62
     0
 10
7.280659
 20
4.098625
 30
0.0
 11
8.001314
 21
4.819279
 31
0.0
  0
LINE
  5
5D21
  8
0
 62
     0
 10
7.435339
 20
4.098625
 30
0.0
 11
7.930634
 21
4.59392
 31
0.0
  0
LINE
  5
5D22
  8
0
 62
     0
 10
7.590018
 20
4.098625
 30
0.0
 11
7.816501
 21
4.325107
 31
0.0
  0
LINE
  5
5D23
  8
0
 62
     0
 10
7.744698
 20
4.098625
 30
0.0
 11
7.781469
 21
4.135396
 31
0.0
  0
ENDBLK
  5
5D24
  8
0
  0
BLOCK
  8
0
  2
*X3
 70
     1
 10
0.0
 20
0.0
 30
0.0
  3
*X3
  1
AME_SOL
  0
LINE
  5
5D50
  8
0
 62
     0
 10
5.782568
 20
6.775945
 30
0.0
 11
5.673992
 21
6.884521
 31
0.0
  0
LINE
  5
5D51
  8
0
 62
     0
 10
8.503992
 20
3.771678
 30
0.0
 11
8.403742
 21
3.871928
 31
0.0
  0
LINE
  5
5D52
  8
0
 62
     0
 10
8.438304
 20
3.695945
 30
0.0
 11
8.249406
 21
3.884843
 31
0.0
  0
LINE
  5
5D53
  8
0
 62
     0
 10
8.296883
 20
3.695945
 30
0.0
 11
8.095069
 21
3.897759
 31
0.0
  0
LINE
  5
5D54
  8
0
 62
     0
 10
8.155461
 20
3.695945
 30
0.0
 11
7.940733
 21
3.910674
 31
0.0
  0
LINE
  5
5D55
  8
0
 62
     0
 10
8.01404
 20
3.695945
 30
0.0
 11
7.786396
 21
3.923589
 31
0.0
  0
LINE
  5
5D56
  8
0
 62
     0
 10
7.872619
 20
3.695945
 30
0.0
 11
7.63206
 21
3.936504
 31
0.0
  0
LINE
  5
5D57
  8
0
 62
     0
 10
7.578992
 20
3.989571
 30
0.0
 11
7.472619
 21
4.095945
 31
0.0
  0
LINE
  5
5D58
  8
0
 62
     0
 10
7.731197
 20
3.695945
 30
0.0
 11
7.331197
 21
4.095945
 31
0.0
  0
LINE
  5
5D59
  8
0
 62
     0
 10
7.589776
 20
3.695945
 30
0.0
 11
7.189776
 21
4.095945
 31
0.0
  0
LINE
  5
5D5A
  8
0
 62
     0
 10
7.448355
 20
3.695945
 30
0.0
 11
7.048355
 21
4.095945
 31
0.0
  0
LINE
  5
5D5B
  8
0
 62
     0
 10
7.306933
 20
3.695945
 30
0.0
 11
6.906933
 21
4.095945
 31
0.0
  0
LINE
  5
5D5C
  8
0
 62
     0
 10
7.165512
 20
3.695945
 30
0.0
 11
6.765512
 21
4.095945
 31
0.0
  0
LINE
  5
5D5D
  8
0
 62
     0
 10
7.024091
 20
3.695945
 30
0.0
 11
6.923992
 21
3.796043
 31
0.0
  0
LINE
  5
5D5E
  8
0
 62
     0
 10
6.829091
 20
3.890945
 30
0.0
 11
6.624091
 21
4.095945
 31
0.0
  0
LINE
  5
5D5F
  8
0
 62
     0
 10
6.732669
 20
3.845945
 30
0.0
 11
6.482669
 21
4.095945
 31
0.0
  0
LINE
  5
5D60
  8
0
 62
     0
 10
6.591248
 20
3.845945
 30
0.0
 11
6.341248
 21
4.095945
 31
0.0
  0
LINE
  5
5D61
  8
0
 62
     0
 10
6.449827
 20
3.845945
 30
0.0
 11
6.299827
 21
3.995945
 31
0.0
  0
LINE
  5
5D62
  8
0
 62
     0
 10
6.123992
 20
4.171779
 30
0.0
 11
6.039827
 21
4.255945
 31
0.0
  0
LINE
  5
5D63
  8
0
 62
     0
 10
6.308405
 20
3.845945
 30
0.0
 11
6.158405
 21
3.995945
 31
0.0
  0
LINE
  5
5D64
  8
0
 62
     0
 10
6.123992
 20
4.030358
 30
0.0
 11
5.898405
 21
4.255945
 31
0.0
  0
LINE
  5
5D65
  8
0
 62
     0
 10
6.166984
 20
3.845945
 30
0.0
 11
5.765488
 21
4.247441
 31
0.0
  0
LINE
  5
5D66
  8
0
 62
     0
 10
6.025562
 20
3.845945
 30
0.0
 11
5.694777
 21
4.17673
 31
0.0
  0
LINE
  5
5D67
  8
0
 62
     0
 10
5.884141
 20
3.845945
 30
0.0
 11
5.673992
 21
4.056094
 31
0.0
  0
LINE
  5
5D68
  8
0
 62
     0
 10
5.74272
 20
3.845945
 30
0.0
 11
5.673992
 21
3.914672
 31
0.0
  0
LINE
  5
5D69
  8
0
 62
     0
 10
5.92399
 20
6.775945
 30
0.0
 11
5.673992
 21
7.025942
 31
0.0
  0
LINE
  5
5D6A
  8
0
 62
     0
 10
6.065411
 20
6.775945
 30
0.0
 11
5.673992
 21
7.167364
 31
0.0
  0
LINE
  5
5D6B
  8
0
 62
     0
 10
6.123992
 20
6.858785
 30
0.0
 11
5.796832
 21
7.185945
 31
0.0
  0
LINE
  5
5D6C
  8
0
 62
     0
 10
6.123992
 20
7.000206
 30
0.0
 11
5.938254
 21
7.185945
 31
0.0
  0
LINE
  5
5D6D
  8
0
 62
     0
 10
6.329675
 20
6.935945
 30
0.0
 11
6.323992
 21
6.941628
 31
0.0
  0
LINE
  5
5D6E
  8
0
 62
     0
 10
6.229675
 20
7.035945
 30
0.0
 11
6.079675
 21
7.185945
 31
0.0
  0
LINE
  5
5D6F
  8
0
 62
     0
 10
6.471096
 20
6.935945
 30
0.0
 11
6.221096
 21
7.185945
 31
0.0
  0
LINE
  5
5D70
  8
0
 62
     0
 10
6.612518
 20
6.935945
 30
0.0
 11
6.362518
 21
7.185945
 31
0.0
  0
LINE
  5
5D71
  8
0
 62
     0
 10
6.753939
 20
6.935945
 30
0.0
 11
6.503939
 21
7.185945
 31
0.0
  0
LINE
  5
5D72
  8
0
 62
     0
 10
6.89536
 20
6.935945
 30
0.0
 11
6.64536
 21
7.185945
 31
0.0
  0
LINE
  5
5D73
  8
0
 62
     0
 10
7.036782
 20
6.935945
 30
0.0
 11
6.831782
 21
7.140945
 31
0.0
  0
LINE
  5
5D74
  8
0
 62
     0
 10
7.178203
 20
6.935945
 30
0.0
 11
6.923992
 21
7.190156
 31
0.0
  0
LINE
  5
5D75
  8
0
 62
     0
 10
7.319624
 20
6.935945
 30
0.0
 11
6.923992
 21
7.331577
 31
0.0
  0
LINE
  5
5D76
  8
0
 62
     0
 10
7.461046
 20
6.935945
 30
0.0
 11
7.061046
 21
7.335945
 31
0.0
  0
LINE
  5
5D77
  8
0
 62
     0
 10
7.578992
 20
6.95942
 30
0.0
 11
7.202467
 21
7.335945
 31
0.0
  0
LINE
  5
5D78
  8
0
 62
     0
 10
7.588124
 20
7.091709
 30
0.0
 11
7.343889
 21
7.335945
 31
0.0
  0
LINE
  5
5D79
  8
0
 62
     0
 10
7.718625
 20
7.10263
 30
0.0
 11
7.48531
 21
7.335945
 31
0.0
  0
LINE
  5
5D7A
  8
0
 62
     0
 10
7.849126
 20
7.11355
 30
0.0
 11
7.626731
 21
7.335945
 31
0.0
  0
LINE
  5
5D7B
  8
0
 62
     0
 10
7.979627
 20
7.124471
 30
0.0
 11
7.768153
 21
7.335945
 31
0.0
  0
LINE
  5
5D7C
  8
0
 62
     0
 10
8.110128
 20
7.135391
 30
0.0
 11
7.909574
 21
7.335945
 31
0.0
  0
LINE
  5
5D7D
  8
0
 62
     0
 10
8.240628
 20
7.146312
 30
0.0
 11
8.050995
 21
7.335945
 31
0.0
  0
LINE
  5
5D7E
  8
0
 62
     0
 10
8.371129
 20
7.157232
 30
0.0
 11
8.192417
 21
7.335945
 31
0.0
  0
LINE
  5
5D7F
  8
0
 62
     0
 10
8.50163
 20
7.168153
 30
0.0
 11
8.333838
 21
7.335945
 31
0.0
  0
ENDBLK
  5
5D80
  8
0
  0
BLOCK
  8
0
  2
COPYRI_101
 70
     0
 10
0.0
 20
0.0
 30
0.0
  3
COPYRI_101
  1

  0
TEXT
  8
0
  40
0.25
  5
5E5C
  72
0
  71
0
 10
0.0258730
 20
-0.00195500
 30
0.000000
  1
COPYRIGHT У 1998 by THORLABS INC.
  0
ENDBLK
  5
5DE8
  8
0
  0
BLOCK
  8
0
  2
ESDINF_101
 70
     0
 10
0.0
 20
0.0
 30
0.0
  3
ESDINF_101
  1

  0
LINE
  5
5DEF
  8
D1
 10
2.987898
 20
0.000297
 30
0.0
 11
-2.987323
 21
0.000297
 31
0.0
  0
LINE
  5
5DF0
  8
D1
 10
-2.89229
 20
0.059637
 30
0.0
 11
2.892865
 21
0.059637
 31
0.0
  0
TEXT
  5
5DF1
  8
D1
 10
-2.794565
 20
0.106519
 30
0.0
 40
0.15
  1
INFORMATION ONLY, NOT FOR MANUFACTURING
  0
ENDBLK
  5
5DF3
  8
0
  0
ENDSEC
  0
SECTION
  2
ENTITIES
  0
TRACE
  5
2A
  8
BORDER
 10
0.170969
 20
0.475937
 30
0.0
 11
0.203319
 21
0.475937
 31
0.0
 12
0.170969
 22
10.541477
 32
0.0
 13
0.203319
 23
10.509127
 33
0.0
  0
TRACE
  5
2B
  8
BORDER
 10
0.170969
 20
10.541477
 30
0.0
 11
0.203319
 21
10.509127
 31
0.0
 12
16.215212
 22
10.541477
 32
0.0
 13
16.182862
 23
10.509127
 33
0.0
  0
TRACE
  5
2C
  8
BORDER
 10
16.215212
 20
10.541477
 30
0.0
 11
16.182862
 21
10.509127
 31
0.0
 12
16.215212
 22
0.475937
 32
0.0
 13
16.182862
 23
0.475937
 33
0.0
  0
TRACE
  5
2D
  8
BORDER
 10
0.187144
 20
0.492112
 30
0.0
 11
0.187144
 21
0.459762
 31
0.0
 12
16.199037
 22
0.492112
 32
0.0
 13
16.199037
 23
0.459762
 33
0.0
  0
LINE
  5
2E
  8
BORDER
 10
16.186122
 20
10.300087
 30
0.11646
 11
16.186122
 21
10.508587
 31
0.11646
  0
TEXT
  5
30
  8
BORDER
 10
13.978324
 20
0.849758
 30
0.0
 40
0.075
  1
B
 72
     1
 11
14.003324
 21
0.849758
 31
0.0
  0
LINE
  5
31
  8
BORDER
 39
0.27
 10
13.84383
 20
1.092413
 30
0.0
 11
13.84383
 21
0.47
 31
0.0
  0
TEXT
  5
32
  8
BORDER
 10
13.893324
 20
0.992258
 30
0.0
 40
0.075
  1
SIZE
 72
     1
 11
14.018324
 21
0.992258
 31
0.0
  0
LINE
  5
33
  8
BORDER
 10
14.877412
 20
1.092413
 30
0.17469
 11
14.877412
 21
0.485261
 31
0.17469
  0
LINE
  5
34
  8
BORDER
 10
12.810247
 20
2.305553
 30
0.17469
 11
16.206997
 21
2.305553
 31
0.17469
  0
TEXT
  5
35
  8
BORDER
 10
12.897592
 20
2.203651
 30
0.17469
 40
0.067935
  1
TITLE
  0
TEXT
  5
36
  8
BORDER
 10
12.887592
 20
1.576661
 30
0.17469
 40
0.067935
  1
DRAWN
  0
TEXT
  5
37
  8
BORDER
 10
12.902445
 20
0.704213
 30
0.17469
 40
0.067935
  1
DWG NO.
  0
TEXT
  5
38
  8
BORDER
 10
13.564575
 20
0.990511
 30
0.17469
 40
0.072788
  1
REV
  0
TEXT
  5
39
  8
BORDER
 10
14.27085
 20
0.995363
 30
0.17469
 40
0.067935
  1
SHEET
  0
TRACE
  5
3A
  8
BORDER
 10
16.206997
 20
2.669491
 30
0.17469
 11
16.206997
 21
2.718016
 31
0.17469
 12
12.83451
 22
2.669491
 32
0.17469
 13
12.785985
 23
2.718016
 33
0.17469
  0
TRACE
  5
3B
  8
BORDER
 10
12.83451
 20
2.669491
 30
0.17469
 11
12.785985
 21
2.718016
 31
0.17469
 12
12.83451
 22
0.475113
 32
0.17469
 13
12.785985
 23
0.475113
 33
0.17469
  0
TEXT
  5
3C
  8
BORDER
 10
12.897592
 20
1.287958
 30
0.17469
 40
0.067935
  1
MATERIAL
  0
TEXT
  5
3D
  8
BORDER
 10
12.902445
 20
0.995363
 30
0.17469
 40
0.067935
  1
DATE
  0
TEXT
  5
3E
  8
BORDER
 10
14.486852
 20
0.844936
 30
0.17469
 40
0.067935
  1
OF
  0
SOLID
  5
3F
  8
BORDER
 10
12.999533
 20
2.346475
 30
0.34938
 11
13.054123
 21
2.346475
 31
0.34938
 12
12.999533
 22
2.574391
 32
0.34938
 13
13.054123
 23
2.574391
 33
0.34938
  0
ARC
  5
40
  8
BORDER
 10
14.422283
 20
2.421453
 30
0.34938
 40
0.069808
 50
5.797667
 51
41.821431
  0
POLYLINE
  5
41
  8
BORDER
 66
     1
 10
0.0
 20
0.0
 30
0.34938
  0
VERTEX
  5
5DF7
  8
BORDER
 10
14.491734
 20
2.428504
 30
0.34938
  0
VERTEX
  5
5DF8
  8
BORDER
 10
14.5355
 20
2.428504
 30
0.34938
 42
0.302044
  0
VERTEX
  5
5DF9
  8
BORDER
 10
14.56349
 20
2.387268
 30
0.34938
 42
0.26537
  0
VERTEX
  5
5DFA
  8
BORDER
 10
14.638534
 20
2.397154
 30
0.34938
 42
0.635606
  0
VERTEX
  5
5DFB
  8
BORDER
 10
14.626421
 20
2.453609
 30
0.34938
 42
-0.000944
  0
VERTEX
  5
5DFC
  8
BORDER
 10
14.536949
 20
2.47446
 30
0.34938
 42
-0.344245
  0
VERTEX
  5
5DFD
  8
BORDER
 10
14.484153
 20
2.540168
 30
0.34938
 42
-0.322222
  0
VERTEX
  5
5DFE
  8
BORDER
 10
14.538299
 20
2.617699
 30
0.34938
 42
-0.141736
  0
VERTEX
  5
5DFF
  8
BORDER
 10
14.630853
 20
2.622899
 30
0.34938
 42
-0.333774
  0
VERTEX
  5
5E00
  8
BORDER
 10
14.697263
 20
2.544219
 30
0.34938
  0
VERTEX
  5
5E01
  8
BORDER
 10
14.64329
 20
2.544219
 30
0.34938
 42
0.301979
  0
VERTEX
  5
5E02
  8
BORDER
 10
14.617506
 20
2.580051
 30
0.34938
 42
0.197288
  0
VERTEX
  5
5E03
  8
BORDER
 10
14.560268
 20
2.578387
 30
0.34938
 42
0.728374
  0
VERTEX
  5
5E04
  8
BORDER
 10
14.566775
 20
2.517729
 30
0.34938
 42
0.001957
  0
SEQEND
  5
5E05
  8
BORDER
  0
POLYLINE
  5
51
  8
BORDER
 66
     1
 10
0.0
 20
0.0
 30
0.34938
  0
VERTEX
  5
5E06
  8
BORDER
 10
14.566775
 20
2.517729
 30
0.34938
 42
0.001957
  0
VERTEX
  5
5E07
  8
BORDER
 10
14.64494
 20
2.501804
 30
0.34938
 42
-0.213696
  0
VERTEX
  5
5E08
  8
BORDER
 10
14.698101
 20
2.464648
 30
0.34938
 42
-0.207559
  0
VERTEX
  5
5E09
  8
BORDER
 10
14.705453
 20
2.408597
 30
0.34938
 42
-0.231198
  0
VERTEX
  5
5E0A
  8
BORDER
 10
14.653744
 20
2.351199
 30
0.34938
 42
-0.176336
  0
VERTEX
  5
5E0B
  8
BORDER
 10
14.545811
 20
2.347528
 30
0.34938
 42
-0.211591
  0
VERTEX
  5
5E0C
  8
BORDER
 10
14.488418
 20
2.399109
 30
0.34938
  0
SEQEND
  5
5E0D
  8
BORDER
  0
ARC
  5
5A
  8
BORDER
 10
14.422679
 20
2.550584
 30
0.34938
 40
0.061436
 50
358.653261
 51
58.670206
  0
ARC
  5
5B
  8
BORDER
 10
14.432009
 20
2.550364
 30
0.34938
 40
0.052103
 50
313.157563
 51
358.653261
  0
ARC
  5
5C
  8
BORDER
 10
14.391564
 20
2.593498
 30
0.34938
 40
0.111232
 50
295.378395
 51
313.157563
  0
ARC
  5
5D
  8
BORDER
 10
14.401285
 20
2.402664
 30
0.34938
 40
0.097985
 50
41.821431
 51
67.21117
  0
ARC
  5
5E
  8
BORDER
 10
14.422283
 20
2.421453
 30
0.34938
 40
0.069808
 50
297.452648
 51
341.332312
  0
ARC
  5
5F
  8
BORDER
 10
14.401118
 20
2.462193
 30
0.34938
 40
0.115718
 50
270.0
 51
297.452648
  0
LINE
  5
60
  8
BORDER
 10
14.268735
 20
2.346475
 30
0.34938
 11
14.401118
 21
2.346475
 31
0.34938
  0
LINE
  5
61
  8
BORDER
 10
14.268735
 20
2.619428
 30
0.34938
 11
14.268735
 21
2.36578
 31
0.34938
  0
LINE
  5
62
  8
BORDER
 10
14.39626
 20
2.619428
 30
0.34938
 11
14.268735
 21
2.619428
 31
0.34938
  0
ARC
  5
63
  8
BORDER
 10
14.39626
 20
2.507183
 30
0.34938
 40
0.112245
 50
58.670206
 51
90.0
  0
POLYLINE
  5
64
  8
BORDER
 66
     1
 10
0.0
 20
0.0
 30
0.34938
  0
VERTEX
  5
5E0E
  8
BORDER
 10
14.275589
 20
2.346475
 30
0.34938
  0
VERTEX
  5
5E0F
  8
BORDER
 10
14.218269
 20
2.346475
 30
0.34938
  0
VERTEX
  5
5E10
  8
BORDER
 10
14.20019
 20
2.40516
 30
0.34938
  0
SEQEND
  5
5E11
  8
BORDER
  0
POLYLINE
  5
69
  8
BORDER
 66
     1
 10
0.0
 20
0.0
 30
0.34938
  0
VERTEX
  5
5E12
  8
BORDER
 10
14.03685
 20
2.392877
 30
0.34938
  0
VERTEX
  5
5E13
  8
BORDER
 10
14.117276
 20
2.619428
 30
0.34938
  0
VERTEX
  5
5E14
  8
BORDER
 10
14.17869
 20
2.619428
 30
0.34938
  0
VERTEX
  5
5E15
  8
BORDER
 10
14.268735
 20
2.36578
 30
0.34938
  0
SEQEND
  5
5E16
  8
BORDER
  0
LINE
  5
6F
  8
BORDER
 10
13.845688
 20
2.619428
 30
0.34938
 11
13.845688
 21
2.346475
 31
0.34938
  0
LINE
  5
70
  8
BORDER
 10
13.903008
 20
2.619428
 30
0.34938
 11
13.845688
 21
2.619428
 31
0.34938
  0
LINE
  5
71
  8
BORDER
 10
13.903008
 20
2.392877
 30
0.34938
 11
13.903008
 21
2.619428
 31
0.34938
  0
LINE
  5
72
  8
BORDER
 10
14.03685
 20
2.392877
 30
0.34938
 11
13.903008
 21
2.392877
 31
0.34938
  0
LINE
  5
73
  8
BORDER
 10
13.845688
 20
2.346475
 30
0.34938
 11
14.039484
 21
2.346475
 31
0.34938
  0
POLYLINE
  5
74
  8
BORDER
 66
     1
 10
0.0
 20
0.0
 30
0.34938
  0
VERTEX
  5
5E17
  8
BORDER
 10
14.20019
 20
2.40516
 30
0.34938
  0
VERTEX
  5
5E18
  8
BORDER
 10
14.095776
 20
2.40516
 30
0.34938
  0
VERTEX
  5
5E19
  8
BORDER
 10
14.077698
 20
2.346475
 30
0.34938
  0
VERTEX
  5
5E1A
  8
BORDER
 10
14.020378
 20
2.346475
 30
0.34938
  0
SEQEND
  5
5E1B
  8
BORDER
  0
SOLID
  5
7A
  8
BORDER
 10
12.912188
 20
2.619428
 30
0.34938
 11
13.141468
 21
2.619428
 31
0.34938
 12
12.912188
 22
2.574391
 32
0.34938
 13
13.141468
 23
2.574391
 33
0.34938
  0
SOLID
  5
7B
  8
BORDER
 10
13.309335
 20
2.512976
 30
0.34938
 11
13.196059
 21
2.512976
 31
0.34938
 12
13.309335
 22
2.466574
 32
0.34938
 13
13.196059
 23
2.466574
 33
0.34938
  0
SOLID
  5
7C
  8
BORDER
 10
13.309335
 20
2.619428
 30
0.34938
 11
13.363925
 21
2.619428
 31
0.34938
 12
13.309335
 22
2.346475
 32
0.34938
 13
13.363925
 23
2.346475
 33
0.34938
  0
SOLID
  5
7D
  8
BORDER
 10
13.141468
 20
2.619428
 30
0.34938
 11
13.196059
 21
2.619428
 31
0.34938
 12
13.141468
 22
2.346475
 32
0.34938
 13
13.196059
 23
2.346475
 33
0.34938
  0
SOLID
  5
7E
  8
BORDER
 10
13.542759
 20
2.614337
 30
0.34938
 11
13.528973
 21
2.57525
 31
0.34938
 12
13.492737
 22
2.624966
 32
0.34938
 13
13.491584
 23
2.585737
 33
0.34938
  0
SOLID
  5
7F
  8
BORDER
 10
13.597138
 20
2.571418
 30
0.34938
 11
13.556545
 21
2.552258
 31
0.34938
 12
13.542759
 22
2.614337
 32
0.34938
 13
13.528973
 23
2.57525
 33
0.34938
  0
SOLID
  5
80
  8
BORDER
 10
13.620115
 20
2.494011
 30
0.34938
 11
13.572629
 21
2.49861
 31
0.34938
 12
13.597138
 22
2.571418
 32
0.34938
 13
13.556545
 23
2.552258
 33
0.34938
  0
SOLID
  5
81
  8
BORDER
 10
13.603265
 20
2.412773
 30
0.34938
 11
13.571097
 21
2.446494
 31
0.34938
 12
13.620115
 22
2.494011
 32
0.34938
 13
13.572629
 23
2.49861
 33
0.34938
  0
SOLID
  5
82
  8
BORDER
 10
13.56497
 20
2.369854
 30
0.34938
 11
13.545823
 21
2.395912
 31
0.34938
 12
13.603265
 22
2.412773
 32
0.34938
 13
13.571097
 23
2.446494
 33
0.34938
  0
SOLID
  5
83
  8
BORDER
 10
13.493742
 20
2.345329
 30
0.34938
 11
13.493742
 21
2.379817
 31
0.34938
 12
13.56497
 22
2.369854
 32
0.34938
 13
13.545823
 23
2.395912
 33
0.34938
  0
SOLID
  5
84
  8
BORDER
 10
13.444725
 20
2.354526
 30
0.34938
 11
13.464638
 21
2.382883
 31
0.34938
 12
13.493742
 22
2.345329
 32
0.34938
 13
13.493742
 23
2.379817
 33
0.34938
  0
SOLID
  5
85
  8
BORDER
 10
13.387283
 20
2.404342
 30
0.34938
 11
13.426343
 21
2.418904
 31
0.34938
 12
13.444725
 22
2.354526
 32
0.34938
 13
13.464638
 23
2.382883
 33
0.34938
  0
SOLID
  5
86
  8
BORDER
 10
13.367369
 20
2.482515
 30
0.34938
 11
13.411791
 21
2.478683
 31
0.34938
 12
13.387283
 22
2.404342
 32
0.34938
 13
13.426343
 23
2.418904
 33
0.34938
  0
SOLID
  5
87
  8
BORDER
 10
13.3832
 20
2.558047
 30
0.34938
 11
13.422402
 21
2.530356
 31
0.34938
 12
13.367369
 22
2.482515
 32
0.34938
 13
13.411791
 23
2.478683
 33
0.34938
  0
SOLID
  5
88
  8
BORDER
 10
13.420096
 20
2.599583
 30
0.34938
 11
13.440851
 21
2.568431
 31
0.34938
 12
13.3832
 22
2.558047
 32
0.34938
 13
13.422402
 23
2.530356
 33
0.34938
  0
SOLID
  5
89
  8
BORDER
 10
13.492737
 20
2.624966
 30
0.34938
 11
13.491584
 21
2.585737
 31
0.34938
 12
13.420096
 22
2.599583
 32
0.34938
 13
13.440851
 23
2.568431
 33
0.34938
  0
POLYLINE
  5
8A
  8
BORDER
 66
     1
 10
0.0
 20
0.0
 30
0.34938
 40
0.010918
 41
0.010918
  0
VERTEX
  5
5E1C
  8
BORDER
 10
13.375899
 20
2.534112
 30
0.34938
 42
0.143054
  0
VERTEX
  5
5E1D
  8
BORDER
 10
13.375444
 20
2.436705
 30
0.34938
 42
0.143054
  0
SEQEND
  5
5E1E
  8
BORDER
  0
POLYLINE
  5
8E
  8
BORDER
 66
     1
 10
0.0
 20
0.0
 30
0.34938
 40
0.010918
 41
0.010918
  0
VERTEX
  5
5E1F
  8
BORDER
 10
13.375444
 20
2.436705
 30
0.34938
 42
0.761639
  0
VERTEX
  5
5E20
  8
BORDER
 10
13.612768
 20
2.439204
 30
0.34938
 42
0.761639
  0
SEQEND
  5
5E21
  8
BORDER
  0
POLYLINE
  5
92
  8
BORDER
 66
     1
 10
0.0
 20
0.0
 30
0.34938
 40
0.010918
 41
0.010918
  0
VERTEX
  5
5E22
  8
BORDER
 10
13.612768
 20
2.439204
 30
0.34938
 42
0.140695
  0
VERTEX
  5
5E23
  8
BORDER
 10
13.610735
 20
2.535499
 30
0.34938
 42
0.140695
  0
SEQEND
  5
5E24
  8
BORDER
  0
POLYLINE
  5
96
  8
BORDER
 66
     1
 10
0.0
 20
0.0
 30
0.34938
 40
0.010918
 41
0.010918
  0
VERTEX
  5
5E25
  8
BORDER
 10
13.610735
 20
2.535499
 30
0.34938
 42
0.741471
  0
VERTEX
  5
5E26
  8
BORDER
 10
13.375899
 20
2.534112
 30
0.34938
 42
0.741471
  0
SEQEND
  5
5E27
  8
BORDER
  0
POLYLINE
  5
9A
  8
BORDER
 66
     1
 10
0.0
 20
0.0
 30
0.34938
 70
     1
 40
0.010918
 41
0.010918
  0
VERTEX
  5
5E28
  8
BORDER
 10
13.426478
 20
2.543906
 30
0.34938
 42
0.228527
  0
VERTEX
  5
5E29
  8
BORDER
 10
13.427753
 20
2.419974
 30
0.34938
 42
0.623004
  0
VERTEX
  5
5E2A
  8
BORDER
 10
13.559064
 20
2.420388
 30
0.34938
 42
0.229006
  0
VERTEX
  5
5E2B
  8
BORDER
 10
13.559445
 20
2.544447
 30
0.34938
 42
0.632312
  0
SEQEND
  5
5E2C
  8
BORDER
  0
SOLID
  5
A0
  8
BORDER
 10
13.788508
 20
2.354065
 30
0.34938
 11
13.839139
 21
2.359386
 31
0.34938
 12
13.786559
 22
2.36041
 32
0.34938
 13
13.840193
 23
2.364562
 33
0.34938
  0
SOLID
  5
A1
  8
BORDER
 10
13.791087
 20
2.346475
 30
0.34938
 11
13.847362
 21
2.346475
 31
0.34938
 12
13.788508
 22
2.354065
 32
0.34938
 13
13.839139
 23
2.359386
 33
0.34938
  0
POLYLINE
  5
A2
  8
BORDER
 66
     1
 10
0.0
 20
0.0
 30
0.34938
 40
0.010918
 41
0.010918
  0
VERTEX
  5
5E2D
  8
BORDER
 10
13.83476
 20
2.364026
 30
0.34938
 42
0.095067
  0
VERTEX
  5
5E2E
  8
BORDER
 10
13.83912
 20
2.349296
 30
0.34938
 42
0.140492
  0
SEQEND
  5
5E2F
  8
BORDER
  0
POLYLINE
  5
A6
  8
BORDER
 66
     1
 10
0.0
 20
0.0
 30
0.34938
 40
0.010918
 41
0.010918
  0
VERTEX
  5
5E30
  8
BORDER
 10
13.774005
 20
2.613969
 30
0.34938
  0
VERTEX
  5
5E31
  8
BORDER
 10
13.623341
 20
2.613969
 30
0.34938
  0
SEQEND
  5
5E32
  8
BORDER
  0
SOLID
  5
AA
  8
BORDER
 10
13.77756
 20
2.495743
 30
0.34938
 11
13.79842
 21
2.486018
 31
0.34938
 12
13.748858
 22
2.496708
 32
0.34938
 13
13.78286
 23
2.476572
 33
0.34938
  0
SOLID
  5
AB
  8
BORDER
 10
13.772284
 20
2.580832
 30
0.34938
 11
13.791498
 21
2.611934
 31
0.34938
 12
13.748858
 22
2.577816
 32
0.34938
 13
13.774005
 23
2.619428
 33
0.34938
  0
SOLID
  5
AC
  8
BORDER
 10
13.790933
 20
2.56104
 30
0.34938
 11
13.833317
 21
2.583094
 31
0.34938
 12
13.772284
 22
2.580832
 32
0.34938
 13
13.791498
 23
2.611934
 33
0.34938
  0
SOLID
  5
AD
  8
BORDER
 10
13.796584
 20
2.53842
 30
0.34938
 11
13.838968
 21
2.524848
 31
0.34938
 12
13.790933
 22
2.56104
 32
0.34938
 13
13.833317
 23
2.583094
 33
0.34938
  0
SOLID
  5
AE
  8
BORDER
 10
13.77756
 20
2.495743
 30
0.34938
 11
13.79842
 21
2.486018
 31
0.34938
 12
13.796584
 22
2.53842
 32
0.34938
 13
13.838968
 23
2.524848
 33
0.34938
  0
SOLID
  5
AF
  8
BORDER
 10
13.756082
 20
2.457609
 30
0.34938
 11
13.78286
 21
2.476572
 31
0.34938
 12
13.732266
 22
2.455562
 32
0.34938
 13
13.748858
 23
2.496708
 33
0.34938
  0
SOLID
  5
B0
  8
BORDER
 10
13.770893
 20
2.442869
 30
0.34938
 11
13.800415
 21
2.463548
 31
0.34938
 12
13.756082
 22
2.457609
 32
0.34938
 13
13.78286
 23
2.476572
 33
0.34938
  0
SOLID
  5
B1
  8
BORDER
 10
13.78344
 20
2.425882
 30
0.34938
 11
13.827723
 21
2.441391
 31
0.34938
 12
13.770893
 22
2.442869
 32
0.34938
 13
13.800415
 23
2.463548
 33
0.34938
  0
SOLID
  5
B2
  8
BORDER
 10
13.782346
 20
2.409588
 30
0.34938
 11
13.83421
 21
2.425286
 31
0.34938
 12
13.78344
 22
2.425882
 32
0.34938
 13
13.827723
 23
2.441391
 33
0.34938
  0
SOLID
  5
B3
  8
BORDER
 10
13.782346
 20
2.409588
 30
0.34938
 11
13.786559
 21
2.36041
 31
0.34938
 12
13.83421
 22
2.425286
 32
0.34938
 13
13.840193
 23
2.364562
 33
0.34938
  0
POLYLINE
  5
B4
  8
BORDER
 66
     1
 10
0.0
 20
0.0
 30
0.34938
 40
0.010918
 41
0.010918
  0
VERTEX
  5
5E33
  8
BORDER
 10
13.791998
 20
2.360876
 30
0.34938
 42
0.114836
  0
VERTEX
  5
5E34
  8
BORDER
 10
13.795761
 20
2.349295
 30
0.34938
 42
0.114836
  0
SEQEND
  5
5E35
  8
BORDER
  0
POLYLINE
  5
B8
  8
BORDER
 66
     1
 10
0.0
 20
0.0
 30
0.34938
 40
0.010918
 41
0.010918
  0
VERTEX
  5
5E36
  8
BORDER
 10
13.787785
 20
2.410054
 30
0.34938
 42
0.389398
  0
VERTEX
  5
5E37
  8
BORDER
 10
13.732266
 20
2.461021
 30
0.34938
 42
0.389398
  0
SEQEND
  5
5E38
  8
BORDER
  0
POLYLINE
  5
BC
  8
BORDER
 66
     1
 10
0.0
 20
0.0
 30
0.34938
 40
0.010918
 41
0.010918
  0
VERTEX
  5
5E39
  8
BORDER
 10
13.828777
 20
2.42475
 30
0.34938
 42
0.358135
  0
VERTEX
  5
5E3A
  8
BORDER
 10
13.782331
 20
2.471138
 30
0.34938
 42
0.358135
  0
SEQEND
  5
5E3B
  8
BORDER
  0
SOLID
  5
C0
  8
BORDER
 10
13.679101
 20
2.496708
 30
0.34938
 11
13.679101
 21
2.455562
 31
0.34938
 12
13.748858
 22
2.496708
 32
0.34938
 13
13.732266
 23
2.455562
 33
0.34938
  0
SOLID
  5
C1
  8
BORDER
 10
13.679101
 20
2.577816
 30
0.34938
 11
13.679101
 21
2.613481
 31
0.34938
 12
13.748858
 22
2.577816
 32
0.34938
 13
13.774005
 23
2.619428
 33
0.34938
  0
POLYLINE
  5
C2
  8
BORDER
 66
     1
 10
0.0
 20
0.0
 30
0.34938
 40
0.010918
 41
0.010918
  0
VERTEX
  5
5E3C
  8
BORDER
 10
13.748858
 20
2.491249
 30
0.34938
 42
1.0
  0
VERTEX
  5
5E3D
  8
BORDER
 10
13.748858
 20
2.583275
 30
0.34938
 42
1.0
  0
SEQEND
  5
5E3E
  8
BORDER
  0
POLYLINE
  5
C6
  8
BORDER
 66
     1
 10
0.0
 20
0.0
 30
0.34938
 40
0.010918
 41
0.010918
  0
VERTEX
  5
5E3F
  8
BORDER
 10
13.782186
 20
2.481989
 30
0.34938
 42
0.939934
  0
VERTEX
  5
5E40
  8
BORDER
 10
13.774005
 20
2.613969
 30
0.34938
 42
0.939934
  0
SEQEND
  5
5E41
  8
BORDER
  0
SOLID
  5
CA
  8
BORDER
 10
13.623341
 20
2.346475
 30
0.34938
 11
13.623341
 21
2.619428
 31
0.34938
 12
13.679101
 22
2.346475
 32
0.34938
 13
13.679101
 23
2.613481
 33
0.34938
  0
SOLID
  5
CB
  8
BORDER
 10
14.839353
 20
2.602096
 30
0.34938
 11
14.842084
 21
2.625675
 31
0.34938
 12
14.835826
 22
2.601233
 32
0.34938
 13
14.835826
 23
2.627204
 33
0.34938
  0
SOLID
  5
CC
  8
BORDER
 10
14.784913
 20
2.60166
 30
0.34938
 11
14.783243
 21
2.623886
 31
0.34938
 12
14.788437
 22
2.60005
 32
0.34938
 13
14.788437
 23
2.625169
 33
0.34938
  0
SOLID
  5
CD
  8
BORDER
 10
14.779493
 20
2.600272
 30
0.34938
 11
14.766551
 21
2.614382
 31
0.34938
 12
14.784913
 22
2.60166
 32
0.34938
 13
14.783243
 23
2.623886
 33
0.34938
  0
POLYLINE
  5
CE
  8
BORDER
 66
     1
 10
0.0
 20
0.0
 30
0.34938
 40
0.005136
 41
0.005136
  0
VERTEX
  5
5E42
  8
BORDER
 10
14.787963
 20
2.622514
 30
0.34938
 42
0.284121
  0
VERTEX
  5
5E43
  8
BORDER
 10
14.750871
 20
2.591486
 30
0.34938
 42
0.288845
  0
SEQEND
  5
5E44
  8
BORDER
  0
POLYLINE
  5
D2
  8
BORDER
 66
     1
 10
0.0
 20
0.0
 30
0.34938
 40
0.005136
 41
0.005136
  0
VERTEX
  5
5E45
  8
BORDER
 10
14.872552
 20
2.597875
 30
0.34938
 42
0.261966
  0
VERTEX
  5
5E46
  8
BORDER
 10
14.83618
 20
2.624579
 30
0.34938
 42
0.265647
  0
SEQEND
  5
5E47
  8
BORDER
  0
SOLID
  5
D6
  8
BORDER
 10
14.855477
 20
2.592599
 30
0.34938
 11
14.871336
 21
2.603251
 31
0.34938
 12
14.839353
 22
2.602096
 32
0.34938
 13
14.842084
 23
2.625675
 33
0.34938
  0
SOLID
  5
D7
  8
BORDER
 10
14.862237
 20
2.570255
 30
0.34938
 11
14.878876
 21
2.561941
 31
0.34938
 12
14.855477
 22
2.592599
 32
0.34938
 13
14.871336
 23
2.603251
 33
0.34938
  0
SOLID
  5
D8
  8
BORDER
 10
14.851057
 20
2.545054
 30
0.34938
 11
14.860677
 21
2.529205
 31
0.34938
 12
14.862237
 22
2.570255
 32
0.34938
 13
14.878876
 23
2.561941
 33
0.34938
  0
SOLID
  5
D9
  8
BORDER
 10
14.816908
 20
2.534193
 30
0.34938
 11
14.81832
 21
2.512323
 31
0.34938
 12
14.851057
 22
2.545054
 32
0.34938
 13
14.860677
 23
2.529205
 33
0.34938
  0
SOLID
  5
DA
  8
BORDER
 10
14.790553
 20
2.536309
 30
0.34938
 11
14.777375
 21
2.520554
 31
0.34938
 12
14.816908
 22
2.534193
 32
0.34938
 13
14.81832
 23
2.512323
 33
0.34938
  0
SOLID
  5
DB
  8
BORDER
 10
14.76608
 20
2.555827
 30
0.34938
 11
14.750549
 21
2.549478
 31
0.34938
 12
14.790553
 22
2.536309
 32
0.34938
 13
14.777375
 23
2.520554
 33
0.34938
  0
SOLID
  5
DC
  8
BORDER
 10
14.763492
 20
2.583106
 30
0.34938
 11
14.748667
 21
2.58922
 31
0.34938
 12
14.76608
 22
2.555827
 32
0.34938
 13
14.750549
 23
2.549478
 33
0.34938
  0
SOLID
  5
DD
  8
BORDER
 10
14.779493
 20
2.600272
 30
0.34938
 11
14.766551
 21
2.614382
 31
0.34938
 12
14.763492
 22
2.583106
 32
0.34938
 13
14.748667
 23
2.58922
 33
0.34938
  0
POLYLINE
  5
DE
  8
BORDER
 66
     1
 10
0.0
 20
0.0
 30
0.34938
 40
0.005136
 41
0.005136
  0
VERTEX
  5
5E48
  8
BORDER
 10
14.877026
 20
2.561688
 30
0.34938
 42
0.152191
  0
VERTEX
  5
5E49
  8
BORDER
 10
14.872552
 20
2.597875
 30
0.34938
 42
0.152191
  0
SEQEND
  5
5E4A
  8
BORDER
  0
POLYLINE
  5
E2
  8
BORDER
 66
     1
 10
0.0
 20
0.0
 30
0.34938
 40
0.005136
 41
0.005136
  0
VERTEX
  5
5E4B
  8
BORDER
 10
14.858096
 20
2.529622
 30
0.34938
 42
0.179001
  0
VERTEX
  5
5E4C
  8
BORDER
 10
14.877026
 20
2.561688
 30
0.34938
 42
0.179001
  0
SEQEND
  5
5E4D
  8
BORDER
  0
POLYLINE
  5
E6
  8
BORDER
 66
     1
 10
0.0
 20
0.0
 30
0.34938
 40
0.005136
 41
0.005136
  0
VERTEX
  5
5E4E
  8
BORDER
 10
14.785176
 20
2.518258
 30
0.34938
 42
0.270661
  0
VERTEX
  5
5E4F
  8
BORDER
 10
14.858096
 20
2.529622
 30
0.34938
 42
0.270661
  0
SEQEND
  5
5E50
  8
BORDER
  0
POLYLINE
  5
EA
  8
BORDER
 66
     1
 10
0.0
 20
0.0
 30
0.34938
 40
0.005136
 41
0.005136
  0
VERTEX
  5
5E51
  8
BORDER
 10
14.750871
 20
2.591486
 30
0.34938
 42
0.398621
  0
VERTEX
  5
5E52
  8
BORDER
 10
14.785176
 20
2.518258
 30
0.34938
 42
0.398621
  0
SEQEND
  5
5E53
  8
BORDER
  0
POLYLINE
  5
EE
  8
BORDER
 66
     1
 10
0.0
 20
0.0
 30
0.34938
 40
0.005136
 41
0.005136
  0
VERTEX
  5
5E54
  8
BORDER
 10
14.788039
 20
2.602587
 30
0.34938
 42
0.342627
  0
VERTEX
  5
5E55
  8
BORDER
 10
14.763276
 20
2.576254
 30
0.34938
 42
0.294281
  0
VERTEX
  5
5E56
  8
BORDER
 10
14.780921
 20
2.542185
 30
0.34938
 42
0.273538
  0
VERTEX
  5
5E57
  8
BORDER
 10
14.845143
 20
2.543054
 30
0.34938
 42
0.20817
  0
VERTEX
  5
5E58
  8
BORDER
 10
14.861466
 20
2.56627
 30
0.34938
 42
0.418985
  0
VERTEX
  5
5E59
  8
BORDER
 10
14.836301
 20
2.603757
 30
0.34938
 42
0.418985
  0
SEQEND
  5
5E5A
  8
BORDER
  0
SOLID
  5
F6
  8
BORDER
 10
14.748889
 20
2.41658
 30
0.34938
 11
14.877283
 21
2.497421
 31
0.34938
 12
14.748898
 22
2.39085
 32
0.34938
 13
14.877286
 23
2.470507
 33
0.34938
  0
SOLID
  5
F7
  8
BORDER
 10
14.748889
 20
2.498112
 30
0.34938
 11
14.877286
 21
2.498112
 31
0.34938
 12
14.748889
 22
2.471149
 32
0.34938
 13
14.877286
 23
2.471149
 33
0.34938
  0
SOLID
  5
F8
  8
BORDER
 10
14.877286
 20
2.388975
 30
0.34938
 11
14.748889
 21
2.388975
 31
0.34938
 12
14.877286
 22
2.415938
 32
0.34938
 13
14.748889
 23
2.415938
 33
0.34938
  0
SOLID
  5
F9
  8
BORDER
 10
14.748889
 20
2.339542
 30
0.34938
 11
14.748889
 21
2.366505
 31
0.34938
 12
14.877286
 22
2.339542
 32
0.34938
 13
14.877286
 23
2.366505
 33
0.34938
  0
LINE
  5
FA
  8
BORDER
 10
14.392346
 20
2.578485
 30
0.34938
 11
14.323326
 21
2.578485
 31
0.34938
  0
LINE
  5
FB
  8
BORDER
 10
14.323326
 20
2.578485
 30
0.34938
 11
14.323326
 21
2.510247
 31
0.34938
  0
LINE
  5
FC
  8
BORDER
 10
14.323326
 20
2.510247
 30
0.34938
 11
14.392346
 21
2.510247
 31
0.34938
  0
ARC
  5
FD
  8
BORDER
 10
14.392346
 20
2.544366
 30
0.34938
 40
0.034119
 50
270.0
 51
90.000005
  0
LINE
  5
FE
  8
BORDER
 10
14.323326
 20
2.467939
 30
0.34938
 11
14.323326
 21
2.388783
 31
0.34938
  0
LINE
  5
FF
  8
BORDER
 10
14.323326
 20
2.388783
 30
0.34938
 11
14.388835
 21
2.388783
 31
0.34938
  0
ARC
  5
100
  8
BORDER
 10
14.388835
 20
2.437243
 30
0.34938
 40
0.04846
 50
270.0
 51
313.227508
  0
ARC
  5
101
  8
BORDER
 10
14.395873
 20
2.429755
 30
0.34938
 40
0.038184
 50
313.227508
 51
90.0
  0
LINE
  5
102
  8
BORDER
 10
14.395873
 20
2.467939
 30
0.34938
 11
14.323326
 21
2.467939
 31
0.34938
  0
LINE
  5
103
  8
BORDER
 10
14.147983
 20
2.574628
 30
0.34938
 11
14.108389
 21
2.446103
 31
0.34938
  0
LINE
  5
104
  8
BORDER
 10
14.108389
 20
2.446103
 30
0.34938
 11
14.187577
 21
2.446103
 31
0.34938
  0
LINE
  5
105
  8
BORDER
 10
14.187577
 20
2.446103
 30
0.34938
 11
14.147983
 21
2.574628
 31
0.34938
  0
TEXT
  5
106
  8
BORDER
 10
15.030967
 20
2.339196
 30
0.34938
 40
0.109181
  1
NEWTON NJ
  0
TEXT
  5
107
  8
BORDER
 10
15.030967
 20
2.521165
 30
0.34938
 40
0.109181
  1
PO BOX 366
  0
LINE
  5
108
  8
BORDER
 10
12.810247
 20
1.674713
 30
0.17469
 11
16.206997
 21
1.674713
 31
0.17469
  0
LINE
  5
109
  8
BORDER
 10
12.834026
 20
1.383563
 30
0.17469
 11
16.192998
 21
1.383563
 31
0.17469
  0
LINE
  5
10A
  8
BORDER
 10
12.810247
 20
1.092413
 30
0.17469
 11
16.192998
 21
1.092413
 31
0.17469
  0
LINE
  5
10B
  8
BORDER
 10
12.810247
 20
0.801263
 30
0.17469
 11
14.875171
 21
0.801263
 31
0.17469
  0
LINE
  5
10C
  8
BORDER
 39
0.17469
 10
13.499302
 20
0.801263
 30
0.17469
 11
13.499302
 21
1.092413
 31
0.17469
  0
TEXT
  5
10D
  8
BORDER
 10
13.752883
 20
1.576661
 30
0.17469
 40
0.067935
  1
ENGINEER
  0
TEXT
  5
10E
  8
BORDER
 10
14.66225
 20
1.576661
 30
0.17469
 40
0.067935
  1
APPROVED
  0
LINE
  5
10F
  8
BORDER
 39
0.17469
 10
14.188357
 20
0.801263
 30
0.17469
 11
14.188357
 21
1.092413
 31
0.17469
  0
TEXT
  5
110
  8
BORDER
 10
14.921085
 20
0.982958
 30
0.17469
 40
0.067935
  1
WHERE USED
  0
TRACE
  5
111
  8
BORDER
 10
14.867707
 20
0.490113
 30
0.17469
 11
14.887117
 21
0.490113
 31
0.17469
 12
14.867707
 22
1.092413
 32
0.17469
 13
14.887117
 23
1.092413
 33
0.17469
 39
0.17469
  0
TRACE
  5
112
  8
BORDER
 10
14.867707
 20
1.684418
 30
0.17469
 11
14.887117
 21
1.665008
 31
0.17469
 12
16.206997
 22
1.684418
 32
0.17469
 13
16.206997
 23
1.665008
 33
0.17469
 39
0.17469
  0
TRACE
  5
113
  8
BORDER
 10
14.877412
 20
1.665008
 30
0.17469
 11
14.877412
 21
1.684418
 31
0.17469
 12
12.810247
 22
1.665008
 32
0.17469
 13
12.810247
 23
1.684418
 33
0.17469
 39
0.17469
  0
TRACE
  5
114
  8
BORDER
 10
16.206997
 20
2.295848
 30
0.17469
 11
16.206997
 21
2.315258
 31
0.17469
 12
12.8151
 22
2.295848
 32
0.17469
 13
12.8151
 23
2.315258
 33
0.17469
 39
0.17469
  0
LINE
  5
115
  8
BORDER
 39
0.17469
 10
12.810247
 20
2.014403
 30
0.17469
 11
16.206997
 21
2.014403
 31
0.17469
  0
TRACE
  5
116
  8
BORDER
 10
12.8151
 20
2.024108
 30
0.17469
 11
12.8151
 21
2.004698
 31
0.17469
 12
16.206997
 22
2.024108
 32
0.17469
 13
16.206997
 23
2.004698
 33
0.17469
 39
0.17469
  0
TEXT
  5
117
  8
BORDER
 10
12.897592
 20
1.888238
 30
0.17469
 40
0.067935
  1
TOL: X.XXX=+/-0.005 X.XX=+/-0.010 ANGULAR +/-30'
  0
TEXT
  5
118
  8
D1
 10
13.364986
 20
2.094093
 30
0.0
 40
0.11
  1
C220TM-A MOUNTED LENS
  0
TEXT
  5
119
  8
D1
 10
13.095
 20
1.41
 30
0.0
 40
0.1
  1
   
  0
TEXT
  5
11A
  8
D1
 10
13.14
 20
1.43
 30
0.0
 40
0.1
  1
GM
  0
TEXT
  5
11B
  8
D1
 10
14.125
 20
1.43
 30
0.0
 40
0.1
  1
JT
  0
TEXT
  5
11C
  8
D1
 10
12.915
 20
0.54
 30
0.0
 40
0.11
  1
0612-E0W
  0
TEXT
  5
11D
  8
D1
 10
14.325
 20
0.845
 30
0.0
 40
0.08
  1
1
  0
TEXT
  5
11E
  8
D1
 10
14.665
 20
0.845
 30
0.0
 40
0.08
  1
1
  0
TEXT
  5
11F
  8
D1
 10
12.86
 20
0.845
 30
0.0
 40
0.08
  1
01/07/99
  0
TEXT
  5
120
  8
BORDER
 10
13.907445
 20
0.704213
 30
0.17469
 40
0.067935
  1
PART NO.
  0
TEXT
  5
121
  8
D1
 10
13.935
 20
0.54
 30
0.0
 40
0.11
  1
    
  0
TEXT
  5
122
  8
D1
 10
14.975
 20
1.375
 30
0.0
 40
0.1
  1
 
  0
LINE
  5
123
  8
BORDER
 10
13.714998
 20
1.666352
 30
0.0
 11
13.714998
 21
1.383563
 31
0.0
  0
LINE
  5
124
  8
BORDER
 39
0.17469
 10
12.810247
 20
1.849403
 30
0.17469
 11
16.206997
 21
1.849403
 31
0.17469
  0
TRACE
  5
125
  8
BORDER
 10
12.8151
 20
1.859108
 30
0.17469
 11
12.8151
 21
1.839698
 31
0.17469
 12
16.206997
 22
1.859108
 32
0.17469
 13
16.206997
 23
1.839698
 33
0.17469
 39
0.17469
  0
TEXT
  5
126
  8
BORDER
 10
12.940179
 20
1.731219
 30
0.158968
 40
0.061821
  1
SURF. FINISH: 32 MICROINCHES UNLESS OTHERWISE NOTED
  0
LINE
  5
127
  8
BORDER
 10
16.192998
 20
1.681352
 30
0.0
 11
16.192998
 21
1.056352
 31
0.0
  0
TEXT
  5
128
  8
D1
 10
13.583921
 20
1.163313
 30
0.0
 40
0.136
  1
N/A
  0
LINE
  5
129
  8
BORDER
 10
12.834026
 20
1.429902
 30
0.0
 11
12.834026
 21
1.366054
 31
0.0
  0
LINE
  5
12A
  8
BORDER
 10
14.614998
 20
1.666352
 30
0.0
 11
14.614998
 21
1.383563
 31
0.0
  0
TEXT
  5
12B
  8
D1
 10
13.917421
 20
0.555371
 30
0.0
 40
0.091406
  1
C220TM-A
  0
TEXT
  5
12D
  8
D1
 10
13.66
 20
0.845
 30
0.0
 40
0.08
  1
A
  0
INSERT
  5
B99
  8
AME_FRZ
  2
AME_NIL
 10
18.014946
 20
14.671179
 30
0.0
  0
INSERT
  5
B9A
  8
AME_FRZ
  2
AME_SOL
 10
18.014946
 20
14.671179
 30
0.0
1001
AME_SOL
1000
R2.1_c2
1000
AME2
1000
sq cm
1070
     3
1070
     0
1070
     3
1000
wire
1040
45.0
1000
U
1040
1.0
1000
cm
1000
gm
1000
MILD_STEEL
1070
    25
1000
CSG
1070
     1
1070
     3
1070
     3
1070
     3
1070
     0
1000
cu cm
1070
     1
1070
     0
1005
0
  0
TEXT
  5
59E3
  8
D1
 10
5.475119
 20
3.001077
 30
0.0
 40
0.15
  1
THORLABS ITEM#  C220TM-A
  0
LINE
  5
59E4
  8
D1
 39
0.27
 10
5.353282
 20
2.963577
 30
0.0
 11
9.181186
 21
2.963577
 31
0.0
  0
LINE
  5
59E5
  8
D1
 39
0.27
 10
9.353686
 20
2.918577
 30
0.0
 11
5.188282
 21
2.918577
 31
0.0
  0
TEXT
  5
59E6
  8
D1
 10
0.806434
 20
1.803986
 30
0.0
 40
0.096
  1
GELTECH 350220 MOLDED GLASS ASPHERIC LENS
  0
TEXT
  5
59E7
  8
D1
 10
1.089634
 20
1.635986
 30
0.0
 40
0.096
  1
NUMERICAL APERTURE: 0.25
  0
TEXT
  5
59E8
  8
D1
 10
1.089634
 20
1.475986
 30
0.0
 40
0.096
  1
EFFECTIVE FOCAL LENGTH: 11.00mm
  0
TEXT
  5
59E9
  8
D1
 10
1.089634
 20
1.315986
 30
0.0
 40
0.096
  1
MAGNIFICATION: INIFINITE
  0
TEXT
  5
59EA
  8
D1
 10
1.089634
 20
1.155986
 30
0.0
 40
0.096
  1
DIFFRACTION LIMITED RANGE 350nm - 1550nm
  0
TEXT
  5
59EB
  8
D1
 10
1.089634
 20
0.995986
 30
0.0
 40
0.096
  1
RMS WFE (axial at 633nm): <0.050 
  0
TEXT
  5
59EC
  8
D1
 10
1.089634
 20
0.837425
 30
0.0
 40
0.096
  1
AR COATING RANGE:  300-600nm
  0
TEXT
  5
5A13
  8
D1
 10
6.78461
 20
9.063749
 30
0.0
 40
0.1
  1
 0.283"
  0
TEXT
  5
5A14
  8
D1
 10
6.760187
 20
8.935015
 30
0.0
 40
0.1
  1
(7.19mm)
  0
TEXT
  5
5A6E
  8
D1
 10
5.863392
 20
2.745559
 30
0.0
 40
0.096
  1
INCLUDES GELTECH OPTIC 350220
  0
LINE
  5
5AAD
  8
0
 10
6.773992
 20
3.890945
 30
0.0
 11
6.773992
 21
3.795945
 31
0.0
  0
LINE
  5
5AAE
  8
0
 10
6.923992
 20
3.890945
 30
0.0
 11
6.773992
 21
3.890945
 31
0.0
  0
LINE
  5
5AAF
  8
0
 10
6.773992
 20
3.795945
 30
0.0
 11
6.723992
 21
3.745945
 31
0.0
  0
LINE
  5
5AB0
  8
0
 10
6.773992
 20
7.235945
 30
0.0
 11
6.723992
 21
7.285945
 31
0.0
  0
LINE
  5
5AB1
  8
0
 10
6.773992
 20
7.140945
 30
0.0
 11
6.773992
 21
7.235945
 31
0.0
  0
LINE
  5
5AB2
  8
0
 10
6.923992
 20
7.140945
 30
0.0
 11
6.773992
 21
7.140945
 31
0.0
  0
LINE
  5
5AB3
  8
0
 10
8.503992
 20
3.745945
 30
0.0
 11
8.453992
 21
3.695945
 31
0.0
  0
LINE
  5
5AB4
  8
0
 10
8.503992
 20
7.285945
 30
0.0
 11
8.453992
 21
7.335945
 31
0.0
  0
LINE
  5
5AB5
  8
0
 10
7.578992
 20
3.940945
 30
0.0
 11
8.503992
 21
3.863539
 31
0.0
  0
LINE
  5
5AB6
  8
0
 10
7.578992
 20
7.090945
 30
0.0
 11
8.503992
 21
7.168351
 31
0.0
  0
LINE
  5
5AB7
  8
0
 10
7.478992
 20
6.935945
 30
0.0
 11
7.478992
 21
6.933265
 31
0.0
  0
LINE
  5
5AB8
  8
0
 10
7.578992
 20
6.955945
 30
0.0
 11
7.478992
 21
6.935945
 31
0.0
  0
LINE
  5
5AB9
  8
0
 10
7.578992
 20
4.075945
 30
0.0
 11
7.478992
 21
4.095945
 31
0.0
  0
LINE
  5
5ABA
  8
0
 10
5.773992
 20
6.775945
 30
0.0
 11
5.773992
 21
4.255945
 31
0.0
  0
LINE
  5
5ABB
  8
0
 10
5.773992
 20
6.775945
 30
0.0
 11
5.673992
 21
6.875945
 31
0.0
  0
LINE
  5
5ABC
  8
0
 10
5.723992
 20
7.285945
 30
0.0
 11
5.673992
 21
7.235945
 31
0.0
  0
LINE
  5
5ABD
  8
0
 10
5.723992
 20
3.745945
 30
0.0
 11
5.673992
 21
3.795945
 31
0.0
  0
LINE
  5
5ABE
  8
0
 10
5.773992
 20
4.255945
 30
0.0
 11
5.673992
 21
4.155945
 31
0.0
  0
LINE
  5
5ABF
  8
0
 10
8.503992
 20
5.280945
 30
0.0
 11
8.503992
 21
3.745945
 31
0.0
  0
LINE
  5
5AC0
  8
0
 10
8.203992
 20
5.280945
 30
0.0
 11
8.503992
 21
5.280945
 31
0.0
  0
LINE
  5
5AC1
  8
0
 10
8.203992
 20
5.750945
 30
0.0
 11
8.203992
 21
5.280945
 31
0.0
  0
LINE
  5
5AC2
  8
0
 10
8.503992
 20
5.750945
 30
0.0
 11
8.203992
 21
5.750945
 31
0.0
  0
LINE
  5
5AC3
  8
0
 10
6.923992
 20
7.335945
 30
0.0
 11
8.453992
 21
7.335945
 31
0.0
  0
LINE
  5
5AC4
  8
0
 10
6.923992
 20
7.140945
 30
0.0
 11
6.923992
 21
7.335945
 31
0.0
  0
LINE
  5
5AC5
  8
0
 10
6.723992
 20
7.285945
 30
0.0
 11
5.723992
 21
7.285945
 31
0.0
  0
LINE
  5
5AC6
  8
0
  6
HIDDEN2
 10
5.673992
 20
7.185945
 30
0.0
 11
6.773992
 21
7.185945
 31
0.0
  0
LINE
  5
5AC7
  8
0
 10
6.923992
 20
3.695945
 30
0.0
 11
8.453992
 21
3.695945
 31
0.0
  0
LINE
  5
5AC8
  8
0
 10
6.923992
 20
3.890945
 30
0.0
 11
6.923992
 21
3.695945
 31
0.0
  0
LINE
  5
5AC9
  8
0
 10
6.723992
 20
3.745945
 30
0.0
 11
5.723992
 21
3.745945
 31
0.0
  0
LINE
  5
5ACA
  8
0
  6
HIDDEN2
 10
5.673992
 20
3.845945
 30
0.0
 11
6.773992
 21
3.845945
 31
0.0
  0
LINE
  5
5ACB
  8
0
 10
6.323992
 20
3.995945
 30
0.0
 11
6.323992
 21
4.098625
 31
0.0
  0
LINE
  5
5ACC
  8
0
 10
6.323992
 20
3.995945
 30
0.0
 11
6.123992
 21
3.995945
 31
0.0
  0
LINE
  5
5ACD
  8
0
 10
6.323992
 20
7.035945
 30
0.0
 11
6.123992
 21
7.035945
 31
0.0
  0
LINE
  5
5ACE
  8
0
 10
6.123992
 20
4.255945
 30
0.0
 11
5.773992
 21
4.255945
 31
0.0
  0
LINE
  5
5ACF
  8
0
 10
7.478992
 20
4.095945
 30
0.0
 11
6.323992
 21
4.095945
 31
0.0
  0
LINE
  5
5AD0
  8
0
 10
8.503992
 20
7.285945
 30
0.0
 11
8.503992
 21
5.750945
 31
0.0
  0
LINE
  5
5AD1
  8
0
 10
7.478992
 20
6.935945
 30
0.0
 11
6.323992
 21
6.935945
 31
0.0
  0
LINE
  5
5AD2
  8
0
 10
6.123992
 20
6.775945
 30
0.0
 11
5.773992
 21
6.775945
 31
0.0
  0
LINE
  5
5AD3
  8
0
 10
7.578992
 20
3.940945
 30
0.0
 11
7.578992
 21
4.098625
 31
0.0
  0
LINE
  5
5AD4
  8
0
 10
5.673992
 20
7.235945
 30
0.0
 11
5.673992
 21
3.795945
 31
0.0
1001
ACAD
1000
ASC_BOUNDS
1002
{
1070
    19
1005
0
1002
}
  0
ARC
  5
5AD5
  8
350220
 39
0.070866
 10
7.761784
 20
6.91358
 30
0.0
 40
0.019685
 50
0.0
 51
90.0
  0
ARC
  5
5AD6
  8
350220
 39
0.070866
 10
6.143677
 20
6.91358
 30
0.0
 40
0.019685
 50
90.0
 51
180.0
  0
ARC
  5
5AD7
  8
350220
 39
0.070866
 10
6.143677
 20
4.11831
 30
0.0
 40
0.019685
 50
180.0
 51
270.0
  0
ARC
  5
5AD8
  8
350220
 39
0.070866
 10
7.761784
 20
4.11831
 30
0.0
 40
0.019685
 50
270.0
 51
0.0
  0
LINE
  5
5AD9
  8
350220
 39
0.070866
 10
7.781469
 20
6.775785
 30
0.0
 11
7.781469
 21
6.91358
 31
0.0
  0
ARC
  5
5ADA
  8
350220
 39
0.070866
 10
5.385406
 20
5.515945
 30
0.0
 40
2.707086
 50
332.264794
 51
27.735206
1001
ACAD
1000
ASC_BOUNDS
1002
{
1070
    19
1005
0
1002
}
  0
LINE
  5
5ADB
  8
350220
 39
0.070866
 10
7.781469
 20
4.11831
 30
0.0
 11
7.781469
 21
4.256105
 31
0.0
  0
LINE
  5
5ADC
  8
350220
 39
0.070866
 10
6.123992
 20
6.91358
 30
0.0
 11
6.123992
 21
4.11831
 31
0.0
1001
ACAD
1000
ASC_BOUNDS
1002
{
1070
    19
1005
0
1005
0
1002
}
  0
LINE
  5
5ADD
  8
350220
 39
0.070866
 10
7.761784
 20
6.933265
 30
0.0
 11
6.143677
 21
6.933265
 31
0.0
  0
LINE
  5
5ADE
  8
350220
 39
0.070866
 10
6.143677
 20
4.098625
 30
0.0
 11
7.761784
 21
4.098625
 31
0.0
  0
LINE
  5
5ADF
  8
0
 10
6.123992
 20
6.91358
 30
0.0
 11
6.123992
 21
7.035945
 31
0.0
  0
LINE
  5
5AE0
  8
0
 10
6.123992
 20
3.995945
 30
0.0
 11
6.123992
 21
4.11831
 31
0.0
  0
LINE
  5
5AE1
  8
0
 10
6.323992
 20
6.933265
 30
0.0
 11
6.323992
 21
7.035945
 31
0.0
  0
LINE
  5
5AE2
  8
0
 10
7.578992
 20
6.933265
 30
0.0
 11
7.578992
 21
7.090945
 31
0.0
  0
LINE
  5
5AE3
  8
0
 10
7.478992
 20
4.098625
 30
0.0
 11
7.478992
 21
4.095945
 31
0.0
  0
LINE
  5
5BB2
  8
D1
  6
CONTINUOUS
 10
8.483992
 20
7.335945
 30
0.0
 11
11.999229
 21
7.335945
 31
0.0
  0
LINE
  5
5BB3
  8
D1
  6
CONTINUOUS
 10
8.483992
 20
3.695945
 30
0.0
 11
11.999229
 21
3.695945
 31
0.0
  0
LINE
  5
5BB4
  8
D1
  6
CONTINUOUS
 10
11.939229
 20
7.155945
 30
0.0
 11
11.939229
 21
5.640348
 31
0.0
  0
LINE
  5
5BB5
  8
D1
  6
CONTINUOUS
 10
11.939229
 20
3.875945
 30
0.0
 11
11.939229
 21
5.219627
 31
0.0
  0
SOLID
  5
5BB6
  8
D1
  6
CONTINUOUS
 10
11.909229
 20
7.155945
 30
0.0
 11
11.969229
 21
7.155945
 31
0.0
 12
11.939229
 22
7.335945
 32
0.0
 13
11.939229
 23
7.335945
 33
0.0
  0
SOLID
  5
5BB7
  8
D1
  6
CONTINUOUS
 10
11.909229
 20
3.875945
 30
0.0
 11
11.969229
 21
3.875945
 31
0.0
 12
11.939229
 22
3.695945
 32
0.0
 13
11.939229
 23
3.695945
 33
0.0
  0
TEXT
  5
5BB9
  8
D1
 10
11.505244
 20
5.34019
 30
0.0
 40
0.1
  1
(%%c9.25mm)
  0
TEXT
  5
5BBA
  8
D1
 10
11.630162
 20
5.468924
 30
0.0
 40
0.1
  1
%%c0.364"
  0
LINE
  5
5BBC
  8
D1
  6
CONTINUOUS
 10
8.533992
 20
7.168351
 30
0.0
 11
10.529152
 21
7.168351
 31
0.0
  0
LINE
  5
5BBD
  8
D1
  6
CONTINUOUS
 10
8.533992
 20
3.863539
 30
0.0
 11
10.529152
 21
3.863539
 31
0.0
  0
LINE
  5
5BBE
  8
D1
  6
CONTINUOUS
 10
10.469152
 20
6.988351
 30
0.0
 11
10.469152
 21
5.587908
 31
0.0
  0
LINE
  5
5BBF
  8
D1
  6
CONTINUOUS
 10
10.469152
 20
4.043539
 30
0.0
 11
10.469152
 21
5.210151
 31
0.0
  0
SOLID
  5
5BC0
  8
D1
  6
CONTINUOUS
 10
10.439152
 20
6.988351
 30
0.0
 11
10.499152
 21
6.988351
 31
0.0
 12
10.469152
 22
7.168351
 32
0.0
 13
10.469152
 23
7.168351
 33
0.0
  0
SOLID
  5
5BC1
  8
D1
  6
CONTINUOUS
 10
10.439152
 20
4.043539
 30
0.0
 11
10.499152
 21
4.043539
 31
0.0
 12
10.469152
 22
3.863539
 32
0.0
 13
10.469152
 23
3.863539
 33
0.0
  0
TEXT
  5
5BC3
  8
D1
 10
10.185623
 20
5.442279
 30
0.0
 40
0.1
  1
%%c0.330"
  0
TEXT
  5
5BC4
  8
D1
 10
10.060705
 20
5.313544
 30
0.0
 40
0.1
  1
(%%c8.38mm)
  0
LINE
  5
5BC5
  8
D1
  6
CONTINUOUS
 10
5.743992
 20
6.775945
 30
0.0
 11
3.654086
 21
6.775945
 31
0.0
  0
LINE
  5
5BC6
  8
D1
  6
CONTINUOUS
 10
5.743992
 20
4.255945
 30
0.0
 11
3.654086
 21
4.255945
 31
0.0
  0
LINE
  5
5BC7
  8
D1
  6
CONTINUOUS
 10
3.714086
 20
6.595945
 30
0.0
 11
3.714086
 21
5.678205
 31
0.0
  0
LINE
  5
5BC8
  8
D1
  6
CONTINUOUS
 10
3.714086
 20
4.435945
 30
0.0
 11
3.714086
 21
5.305268
 31
0.0
  0
SOLID
  5
5BC9
  8
D1
  6
CONTINUOUS
 10
3.684086
 20
6.595945
 30
0.0
 11
3.744086
 21
6.595945
 31
0.0
 12
3.714086
 22
6.775945
 32
0.0
 13
3.714086
 23
6.775945
 33
0.0
  0
SOLID
  5
5BCA
  8
D1
  6
CONTINUOUS
 10
3.684086
 20
4.435945
 30
0.0
 11
3.744086
 21
4.435945
 31
0.0
 12
3.714086
 22
4.255945
 32
0.0
 13
3.714086
 23
4.255945
 33
0.0
  0
TEXT
  5
5BCC
  8
D1
 10
3.314667
 20
5.389548
 30
0.0
 40
0.1
  1
(%%c6.40mm)
  0
TEXT
  5
5BCD
  8
D1
 10
3.439585
 20
5.518282
 30
0.0
 40
0.1
  1
%%c0.252"
  0
LINE
  5
5BD1
  8
D1
  6
CENTER2
 10
4.733645
 20
5.515945
 30
0.0
 11
9.311777
 21
5.515945
 31
0.0
1001
ACAD
1000
ASC_BOUNDS
1002
{
1070
    19
1005
0
1002
}
  0
LINE
  5
5BD4
  8
D1
  6
CONTINUOUS
 10
5.673992
 20
7.265945
 30
0.0
 11
5.673992
 21
9.118294
 31
0.0
  0
LINE
  5
5BD5
  8
D1
  6
CONTINUOUS
 10
8.503992
 20
7.315945
 30
0.0
 11
8.503992
 21
9.118294
 31
0.0
  0
LINE
  5
5BD6
  8
D1
  6
CONTINUOUS
 10
5.853992
 20
9.058294
 30
0.0
 11
6.679207
 21
9.058294
 31
0.0
  0
LINE
  5
5BD7
  8
D1
  6
CONTINUOUS
 10
8.323992
 20
9.058294
 30
0.0
 11
7.562577
 21
9.058294
 31
0.0
  0
SOLID
  5
5BD8
  8
D1
  6
CONTINUOUS
 10
5.853992
 20
9.088294
 30
0.0
 11
5.853992
 21
9.028294
 31
0.0
 12
5.673992
 22
9.058294
 32
0.0
 13
5.673992
 23
9.058294
 33
0.0
  0
SOLID
  5
5BD9
  8
D1
  6
CONTINUOUS
 10
8.323992
 20
9.088294
 30
0.0
 11
8.323992
 21
9.028294
 31
0.0
 12
8.503992
 22
9.058294
 32
0.0
 13
8.503992
 23
9.058294
 33
0.0
  0
LINE
  5
5BDC
  8
D1
  6
CONTINUOUS
 10
6.923992
 20
7.365945
 30
0.0
 11
6.923992
 21
8.620092
 31
0.0
  0
LINE
  5
5BDD
  8
D1
  6
CONTINUOUS
 10
5.853992
 20
8.560092
 30
0.0
 11
5.910302
 21
8.560092
 31
0.0
  0
LINE
  5
5BDE
  8
D1
  6
CONTINUOUS
 10
6.743992
 20
8.560092
 30
0.0
 11
6.704623
 21
8.560092
 31
0.0
  0
SOLID
  5
5BDF
  8
D1
  6
CONTINUOUS
 10
5.853992
 20
8.590092
 30
0.0
 11
5.853992
 21
8.530092
 31
0.0
 12
5.673992
 22
8.560092
 32
0.0
 13
5.673992
 23
8.560092
 33
0.0
  0
SOLID
  5
5BE0
  8
D1
  6
CONTINUOUS
 10
6.743992
 20
8.590092
 30
0.0
 11
6.743992
 21
8.530092
 31
0.0
 12
6.923992
 22
8.560092
 32
0.0
 13
6.923992
 23
8.560092
 33
0.0
  0
TEXT
  5
5BE2
  8
D1
 10
5.952058
 20
8.43461
 30
0.0
 40
0.1
  1
(3.18mm)
  0
TEXT
  5
5BE3
  8
D1
 10
5.976481
 20
8.563345
 30
0.0
 40
0.1
  1
 0.125"
  0
LINE
  5
5BE5
  8
D1
  6
CONTINUOUS
 10
6.123992
 20
7.065945
 30
0.0
 11
6.123992
 21
8.161075
 31
0.0
  0
LINE
  5
5BE6
  8
D1
  6
CONTINUOUS
 10
6.303992
 20
8.101075
 30
0.0
 11
6.483992
 21
8.101075
 31
0.0
  0
LINE
  5
5BE7
  8
D1
  6
CONTINUOUS
 10
5.493992
 20
8.101075
 30
0.0
 11
5.143388
 21
8.101075
 31
0.0
  0
SOLID
  5
5BE8
  8
D1
  6
CONTINUOUS
 10
6.303992
 20
8.131075
 30
0.0
 11
6.303992
 21
8.071075
 31
0.0
 12
6.123992
 22
8.101075
 32
0.0
 13
6.123992
 23
8.101075
 33
0.0
  0
SOLID
  5
5BE9
  8
D1
  6
CONTINUOUS
 10
5.493992
 20
8.131075
 30
0.0
 11
5.493992
 21
8.071075
 31
0.0
 12
5.673992
 22
8.101075
 32
0.0
 13
5.673992
 23
8.101075
 33
0.0
  0
TEXT
  5
5BEB
  8
D1
 10
4.469483
 20
8.098286
 30
0.0
 40
0.1
  1
 0.045"
  0
TEXT
  5
5BEC
  8
D1
 10
4.44506
 20
7.969552
 30
0.0
 40
0.1
  1
(1.14mm)
  0
POLYLINE
  8
0
  5
5E5D
  66
     1
 10
0.000000
 20
0.000000
 30
0.000000
  70
     8
  0
VERTEX
  8
0
  5
5E5E
 10
6.55585
 20
7.28594
 30
0.000000
  70
    32
  0
VERTEX
  8
0
  5
5E5F
 10
9.23053
 20
8.92375
 30
0.000000
  70
    32
  0
VERTEX
  8
0
  5
5E60
 10
9.52445
 20
8.92375
 30
0.000000
  70
    32
  0
SEQEND
  8
0
  5
5E61
  0
TEXT
  8
0
  40
0.1
  5
5E62
  72
0
  71
0
 10
9.61445
 20
8.79375
 30
0.000000
  1
M9-0.5 THREAD
  0
INSERT
  5
5CF9
  8
350220
  2
*X2
 10
0.0
 20
0.0
 30
0.0
1001
ACAD
1000
HATCH
1002
{
1070
    19
1000
ANSI31
1040
0.875
1040
0.0
1002
}
  0
INSERT
  5
5D4F
  8
0
  2
*X3
 10
0.0
 20
0.0
 30
0.0
1001
ACAD
1000
HATCH
1002
{
1070
    19
1000
ANSI31
1040
0.8
1040
1.570796
1002
}
  0
TEXT
  5
5DE0
  8
D1
 10
15.057668
 20
0.83839
 30
0.0
 40
0.091406
  1
WEB
  0
TEXT
  5
5DE1
  8
D1
 10
15.057668
 20
0.696881
 30
0.0
 40
0.091406
  1
MECHANICAL
  0
TEXT
  5
5DE2
  8
D1
 10
15.057668
 20
0.555371
 30
0.0
 40
0.091406
  1
DRAWING
  0
INSERT
  5
5DEB
  8
350220
  2
COPYRI_101
 10
0.691086
 20
9.876938
 30
0.0
 41
0.5
 42
0.5
 43
0.5
  0
INSERT
  5
5DF4
  8
350220
  2
ESDINF_101
 10
8.694927
 20
1.097307
 30
0.0
 41
0.5
 42
0.5
 43
0.5
  0
ENDSEC
  0
EOF
