ISO-10303-21;
HEADER;
FILE_DESCRIPTION (( 'STEP AP203' ),
    '1' );
FILE_NAME ('Web Model 47024.STEP',
    '2017-01-31T15:20:11',
    ( '' ),
    ( '' ),
    'SwSTEP 2.0',
    'SolidWorks 2016',
    '' );
FILE_SCHEMA (( 'CONFIG_CONTROL_DESIGN' ));
ENDSEC;

DATA;
#1 = VECTOR ( 'NONE', #108, 1000.000000000000000 ) ;
#2 = ORIENTED_EDGE ( 'NONE', *, *, #173, .F. ) ;
#3 = EDGE_LOOP ( 'NONE', ( #45, #86 ) ) ;
#4 = EDGE_LOOP ( 'NONE', ( #67, #156, #34, #137 ) ) ;
#5 = PERSON_AND_ORGANIZATION ( #172, #104 ) ;
#6 = CC_DESIGN_APPROVAL ( #124, ( #80 ) ) ;
#7 = APPROVAL_STATUS ( 'not_yet_approved' ) ;
#8 = CC_DESIGN_PERSON_AND_ORGANIZATION_ASSIGNMENT ( #71, #169, ( #101 ) ) ;
#9 = DIRECTION ( 'NONE',  ( 1.000000000000000000, 0.0000000000000000000, 0.0000000000000000000 ) ) ;
#10 = EDGE_CURVE ( 'NONE', #51, #31, #168, .T. ) ;
#11 = APPROVAL_DATE_TIME ( #139, #14 ) ;
#12 = COORDINATED_UNIVERSAL_TIME_OFFSET ( 5, 0, .BEHIND. ) ;
#13 = APPROVAL_PERSON_ORGANIZATION ( #92, #14, #129 ) ;
#14 = APPROVAL ( #7, 'UNSPECIFIED' ) ;
#15 = VERTEX_POINT ( 'NONE', #105 ) ;
#16 = DATE_AND_TIME ( #21, #110 ) ;
#17 = LOCAL_TIME ( 10, 20, 11.00000000000000000, #32 ) ;
#18 = PRODUCT_RELATED_PRODUCT_CATEGORY ( 'detail', '', ( #54 ) ) ;
#19 = CARTESIAN_POINT ( 'NONE',  ( 0.0000000000000000000, 0.0000000000000000000, 0.0000000000000000000 ) ) ;
#20 = ORIENTED_EDGE ( 'NONE', *, *, #111, .T. ) ;
#21 = CALENDAR_DATE ( 2017, 31, 1 ) ;
#22 = PLANE ( 'NONE',  #93 ) ;
#23 = APPLICATION_PROTOCOL_DEFINITION ( 'international standard', 'config_control_design', 1994, #84 ) ;
#24 = CYLINDRICAL_SURFACE ( 'NONE', #165, 6.249999999999998200 ) ;
#25 = CARTESIAN_POINT ( 'NONE',  ( 0.0000000000000000000, 0.0000000000000000000, 3.000000000000000000 ) ) ;
#26 = EDGE_LOOP ( 'NONE', ( #100, #166, #153, #2 ) ) ;
#27 = MECHANICAL_CONTEXT ( 'NONE', #84, 'mechanical' ) ;
#28 = CC_DESIGN_PERSON_AND_ORGANIZATION_ASSIGNMENT ( #75, #134, ( #54 ) ) ;
#29 = DIRECTION ( 'NONE',  ( -0.0000000000000000000, -0.0000000000000000000, -1.000000000000000000 ) ) ;
#30 = APPROVAL_PERSON_ORGANIZATION ( #136, #47, #113 ) ;
#31 = VERTEX_POINT ( 'NONE', #162 ) ;
#32 = COORDINATED_UNIVERSAL_TIME_OFFSET ( 5, 0, .BEHIND. ) ;
#33 = APPROVAL_PERSON_ORGANIZATION ( #5, #124, #135 ) ;
#34 = ORIENTED_EDGE ( 'NONE', *, *, #173, .T. ) ;
#35 = PERSON_AND_ORGANIZATION ( #172, #104 ) ;
#36 = CIRCLE ( 'NONE', #114, 6.249999999999998200 ) ;
#37 = VERTEX_POINT ( 'NONE', #55 ) ;
#38 = SECURITY_CLASSIFICATION ( '', '', #117 ) ;
#39 = PERSON_AND_ORGANIZATION ( #172, #104 ) ;
#40 = DIRECTION ( 'NONE',  ( 1.000000000000000000, 0.0000000000000000000, 0.0000000000000000000 ) ) ;
#41 = DIRECTION ( 'NONE',  ( 0.0000000000000000000, 0.0000000000000000000, 1.000000000000000000 ) ) ;
#42 = DIRECTION ( 'NONE',  ( -0.0000000000000000000, -0.0000000000000000000, -1.000000000000000000 ) ) ;
#43 = ADVANCED_BREP_SHAPE_REPRESENTATION ( 'Web Model 47024', ( #143, #140 ), #131 ) ;
#44 = CARTESIAN_POINT ( 'NONE',  ( 0.0000000000000000000, 0.0000000000000000000, 0.0000000000000000000 ) ) ;
#45 = ORIENTED_EDGE ( 'NONE', *, *, #10, .F. ) ;
#46 = EDGE_CURVE ( 'NONE', #15, #37, #36, .T. ) ;
#47 = APPROVAL ( #141, 'UNSPECIFIED' ) ;
#48 = DATE_AND_TIME ( #122, #115 ) ;
#49 = PERSON_AND_ORGANIZATION_ROLE ( 'classification_officer' ) ;
#50 = CARTESIAN_POINT ( 'NONE',  ( -6.249999999999998200, 0.0000000000000000000, 3.000000000000000000 ) ) ;
#51 = VERTEX_POINT ( 'NONE', #59 ) ;
#52 = APPROVAL_DATE_TIME ( #128, #124 ) ;
#53 = APPLICATION_PROTOCOL_DEFINITION ( 'international standard', 'config_control_design', 1994, #119 ) ;
#54 = PRODUCT ( 'Web Model 47024', 'Web Model 47024', '', ( #27 ) ) ;
#55 = CARTESIAN_POINT ( 'NONE',  ( -6.249999999999998200, 0.0000000000000000000, 3.000000000000000000 ) ) ;
#56 = ADVANCED_FACE ( 'NONE', ( #109 ), #95, .T. ) ;
#57 = AXIS2_PLACEMENT_3D ( 'NONE', #44, #123, #163 ) ;
#58 = CARTESIAN_POINT ( 'NONE',  ( 0.0000000000000000000, 0.0000000000000000000, 0.0000000000000000000 ) ) ;
#59 = CARTESIAN_POINT ( 'NONE',  ( -6.249999999999998200, 0.0000000000000000000, 0.0000000000000000000 ) ) ;
#60 = CC_DESIGN_APPROVAL ( #47, ( #38 ) ) ;
#61 = LINE ( 'NONE', #50, #118 ) ;
#62 = EDGE_CURVE ( 'NONE', #31, #51, #72, .T. ) ;
#63 = PRODUCT_DEFINITION_SHAPE ( 'NONE', 'NONE',  #80 ) ;
#64 = CC_DESIGN_DATE_AND_TIME_ASSIGNMENT ( #81, #68, ( #38 ) ) ;
#65 = COORDINATED_UNIVERSAL_TIME_OFFSET ( 5, 0, .BEHIND. ) ;
#66 = CALENDAR_DATE ( 2017, 31, 1 ) ;
#67 = ORIENTED_EDGE ( 'NONE', *, *, #102, .F. ) ;
#68 = DATE_TIME_ROLE ( 'classification_date' ) ;
#69 = CYLINDRICAL_SURFACE ( 'NONE', #157, 6.249999999999998200 ) ;
#70 = LOCAL_TIME ( 10, 20, 11.00000000000000000, #132 ) ;
#71 = PERSON_AND_ORGANIZATION ( #172, #104 ) ;
#72 = CIRCLE ( 'NONE', #133, 6.249999999999998200 ) ;
#73 = CALENDAR_DATE ( 2017, 31, 1 ) ;
#74 = CALENDAR_DATE ( 2017, 31, 1 ) ;
#75 = PERSON_AND_ORGANIZATION ( #172, #104 ) ;
#76 = UNCERTAINTY_MEASURE_WITH_UNIT (LENGTH_MEASURE( 1.000000000000000100E-005 ), #155, 'distance_accuracy_value', 'NONE');
#77 = CC_DESIGN_SECURITY_CLASSIFICATION ( #38, ( #101 ) ) ;
#78 = FACE_OUTER_BOUND ( 'NONE', #3, .T. ) ;
#79 = PERSON_AND_ORGANIZATION_ROLE ( 'creator' ) ;
#80 = PRODUCT_DEFINITION ( 'UNKNOWN', '', #101, #138 ) ;
#81 = DATE_AND_TIME ( #73, #70 ) ;
#82 = AXIS2_PLACEMENT_3D ( 'NONE', #147, #107, #121 ) ;
#83 = DATE_TIME_ROLE ( 'creation_date' ) ;
#84 = APPLICATION_CONTEXT ( 'configuration controlled 3d designs of mechanical parts and assemblies' ) ;
#85 = CARTESIAN_POINT ( 'NONE',  ( 0.0000000000000000000, 0.0000000000000000000, 3.000000000000000000 ) ) ;
#86 = ORIENTED_EDGE ( 'NONE', *, *, #62, .F. ) ;
#87 = APPROVAL_DATE_TIME ( #16, #47 ) ;
#88 = LOCAL_TIME ( 10, 20, 11.00000000000000000, #98 ) ;
#89 = CIRCLE ( 'NONE', #99, 6.249999999999998200 ) ;
#90 = CLOSED_SHELL ( 'NONE', ( #106, #120, #56, #159 ) ) ;
#91 = PERSON_AND_ORGANIZATION ( #172, #104 ) ;
#92 = PERSON_AND_ORGANIZATION ( #172, #104 ) ;
#93 = AXIS2_PLACEMENT_3D ( 'NONE', #19, #116, #130 ) ;
#94 =( NAMED_UNIT ( * ) SI_UNIT ( $, .STERADIAN. ) SOLID_ANGLE_UNIT ( ) );
#95 = PLANE ( 'NONE',  #82 ) ;
#96 = DIRECTION ( 'NONE',  ( 0.0000000000000000000, 0.0000000000000000000, 1.000000000000000000 ) ) ;
#97 = CARTESIAN_POINT ( 'NONE',  ( 0.0000000000000000000, 0.0000000000000000000, 3.000000000000000000 ) ) ;
#98 = COORDINATED_UNIVERSAL_TIME_OFFSET ( 5, 0, .BEHIND. ) ;
#99 = AXIS2_PLACEMENT_3D ( 'NONE', #97, #145, #158 ) ;
#100 = ORIENTED_EDGE ( 'NONE', *, *, #46, .F. ) ;
#101 = PRODUCT_DEFINITION_FORMATION_WITH_SPECIFIED_SOURCE ( 'ANY', '', #54, .NOT_KNOWN. ) ;
#102 = EDGE_CURVE ( 'NONE', #15, #31, #171, .T. ) ;
#103 = FACE_OUTER_BOUND ( 'NONE', #26, .T. ) ;
#104 = ORGANIZATION ( 'UNSPECIFIED', 'UNSPECIFIED', '' ) ;
#105 = CARTESIAN_POINT ( 'NONE',  ( 6.249999999999998200, 7.654042494670955600E-016, 3.000000000000000000 ) ) ;
#106 = ADVANCED_FACE ( 'NONE', ( #103 ), #24, .T. ) ;
#107 = DIRECTION ( 'NONE',  ( 0.0000000000000000000, 0.0000000000000000000, 1.000000000000000000 ) ) ;
#108 = DIRECTION ( 'NONE',  ( -0.0000000000000000000, -0.0000000000000000000, -1.000000000000000000 ) ) ;
#109 = FACE_OUTER_BOUND ( 'NONE', #151, .T. ) ;
#110 = LOCAL_TIME ( 10, 20, 11.00000000000000000, #65 ) ;
#111 = EDGE_CURVE ( 'NONE', #37, #15, #89, .T. ) ;
#112 = CC_DESIGN_PERSON_AND_ORGANIZATION_ASSIGNMENT ( #35, #49, ( #38 ) ) ;
#113 = APPROVAL_ROLE ( '' ) ;
#114 = AXIS2_PLACEMENT_3D ( 'NONE', #25, #96, #164 ) ;
#115 = LOCAL_TIME ( 10, 20, 11.00000000000000000, #12 ) ;
#116 = DIRECTION ( 'NONE',  ( 0.0000000000000000000, 0.0000000000000000000, 1.000000000000000000 ) ) ;
#117 = SECURITY_CLASSIFICATION_LEVEL ( 'unclassified' ) ;
#118 = VECTOR ( 'NONE', #170, 1000.000000000000000 ) ;
#119 = APPLICATION_CONTEXT ( 'configuration controlled 3d designs of mechanical parts and assemblies' ) ;
#120 = ADVANCED_FACE ( 'NONE', ( #142 ), #69, .T. ) ;
#121 = DIRECTION ( 'NONE',  ( 1.000000000000000000, 0.0000000000000000000, -0.0000000000000000000 ) ) ;
#122 = CALENDAR_DATE ( 2017, 31, 1 ) ;
#123 = DIRECTION ( 'NONE',  ( 0.0000000000000000000, 0.0000000000000000000, 1.000000000000000000 ) ) ;
#124 = APPROVAL ( #146, 'UNSPECIFIED' ) ;
#125 = DIRECTION ( 'NONE',  ( 0.0000000000000000000, 0.0000000000000000000, 1.000000000000000000 ) ) ;
#126 = CARTESIAN_POINT ( 'NONE',  ( 0.0000000000000000000, 0.0000000000000000000, 3.000000000000000000 ) ) ;
#127 = DIRECTION ( 'NONE',  ( -1.000000000000000000, 0.0000000000000000000, 0.0000000000000000000 ) ) ;
#128 = DATE_AND_TIME ( #66, #88 ) ;
#129 = APPROVAL_ROLE ( '' ) ;
#130 = DIRECTION ( 'NONE',  ( 1.000000000000000000, 0.0000000000000000000, -0.0000000000000000000 ) ) ;
#131 =( GEOMETRIC_REPRESENTATION_CONTEXT ( 3 ) GLOBAL_UNCERTAINTY_ASSIGNED_CONTEXT ( ( #76 ) ) GLOBAL_UNIT_ASSIGNED_CONTEXT ( ( #155, #175, #94 ) ) REPRESENTATION_CONTEXT ( 'NONE', 'WORKASPACE' ) );
#132 = COORDINATED_UNIVERSAL_TIME_OFFSET ( 5, 0, .BEHIND. ) ;
#133 = AXIS2_PLACEMENT_3D ( 'NONE', #58, #41, #9 ) ;
#134 = PERSON_AND_ORGANIZATION_ROLE ( 'design_owner' ) ;
#135 = APPROVAL_ROLE ( '' ) ;
#136 = PERSON_AND_ORGANIZATION ( #172, #104 ) ;
#137 = ORIENTED_EDGE ( 'NONE', *, *, #10, .T. ) ;
#138 = DESIGN_CONTEXT ( 'detailed design', #119, 'design' ) ;
#139 = DATE_AND_TIME ( #74, #17 ) ;
#140 = AXIS2_PLACEMENT_3D ( 'NONE', #148, #125, #40 ) ;
#141 = APPROVAL_STATUS ( 'not_yet_approved' ) ;
#142 = FACE_OUTER_BOUND ( 'NONE', #4, .T. ) ;
#143 = MANIFOLD_SOLID_BREP ( 'Extrude1', #90 ) ;
#144 = ORIENTED_EDGE ( 'NONE', *, *, #46, .T. ) ;
#145 = DIRECTION ( 'NONE',  ( 0.0000000000000000000, 0.0000000000000000000, 1.000000000000000000 ) ) ;
#146 = APPROVAL_STATUS ( 'not_yet_approved' ) ;
#147 = CARTESIAN_POINT ( 'NONE',  ( 0.0000000000000000000, 0.0000000000000000000, 3.000000000000000000 ) ) ;
#148 = CARTESIAN_POINT ( 'NONE',  ( 0.0000000000000000000, 0.0000000000000000000, 0.0000000000000000000 ) ) ;
#149 = CC_DESIGN_PERSON_AND_ORGANIZATION_ASSIGNMENT ( #91, #160, ( #80 ) ) ;
#150 = DIRECTION ( 'NONE',  ( -1.000000000000000000, 0.0000000000000000000, 0.0000000000000000000 ) ) ;
#151 = EDGE_LOOP ( 'NONE', ( #20, #144 ) ) ;
#152 = SHAPE_DEFINITION_REPRESENTATION ( #63, #43 ) ;
#153 = ORIENTED_EDGE ( 'NONE', *, *, #62, .T. ) ;
#154 = CC_DESIGN_DATE_AND_TIME_ASSIGNMENT ( #48, #83, ( #80 ) ) ;
#155 =( LENGTH_UNIT ( ) NAMED_UNIT ( * ) SI_UNIT ( .MILLI., .METRE. ) );
#156 = ORIENTED_EDGE ( 'NONE', *, *, #111, .F. ) ;
#157 = AXIS2_PLACEMENT_3D ( 'NONE', #85, #29, #127 ) ;
#158 = DIRECTION ( 'NONE',  ( 1.000000000000000000, 0.0000000000000000000, 0.0000000000000000000 ) ) ;
#159 = ADVANCED_FACE ( 'NONE', ( #78 ), #22, .F. ) ;
#160 = PERSON_AND_ORGANIZATION_ROLE ( 'creator' ) ;
#161 = CARTESIAN_POINT ( 'NONE',  ( 6.249999999999998200, 7.654042494670955600E-016, 3.000000000000000000 ) ) ;
#162 = CARTESIAN_POINT ( 'NONE',  ( 6.249999999999998200, 7.654042494670955600E-016, 0.0000000000000000000 ) ) ;
#163 = DIRECTION ( 'NONE',  ( 1.000000000000000000, 0.0000000000000000000, 0.0000000000000000000 ) ) ;
#164 = DIRECTION ( 'NONE',  ( 1.000000000000000000, 0.0000000000000000000, 0.0000000000000000000 ) ) ;
#165 = AXIS2_PLACEMENT_3D ( 'NONE', #126, #42, #150 ) ;
#166 = ORIENTED_EDGE ( 'NONE', *, *, #102, .T. ) ;
#167 = CC_DESIGN_APPROVAL ( #14, ( #101 ) ) ;
#168 = CIRCLE ( 'NONE', #57, 6.249999999999998200 ) ;
#169 = PERSON_AND_ORGANIZATION_ROLE ( 'design_supplier' ) ;
#170 = DIRECTION ( 'NONE',  ( -0.0000000000000000000, -0.0000000000000000000, -1.000000000000000000 ) ) ;
#171 = LINE ( 'NONE', #161, #1 ) ;
#172 = PERSON ( 'UNSPECIFIED', 'UNSPECIFIED', 'UNSPECIFIED', ('UNSPECIFIED'), ('UNSPECIFIED'), ('UNSPECIFIED') ) ;
#173 = EDGE_CURVE ( 'NONE', #37, #51, #61, .T. ) ;
#174 = CC_DESIGN_PERSON_AND_ORGANIZATION_ASSIGNMENT ( #39, #79, ( #101 ) ) ;
#175 =( NAMED_UNIT ( * ) PLANE_ANGLE_UNIT ( ) SI_UNIT ( $, .RADIAN. ) );
ENDSEC;
END-ISO-10303-21;
