ISO-10303-21;
HEADER;
FILE_DESCRIPTION (( 'STEP AP203' ),
    '1' );
FILE_NAME ('Web Model 46102_48928.step',
    '2017-03-01T20:54:47',
    ( '' ),
    ( '' ),
    'SwSTEP 2.0',
    'SolidWorks 2016',
    '' );
FILE_SCHEMA (( 'CONFIG_CONTROL_DESIGN' ));
ENDSEC;

DATA;
#1 = PERSON_AND_ORGANIZATION_ROLE ( 'creator' ) ;
#2 = PERSON_AND_ORGANIZATION_ROLE ( 'creator' ) ;
#3 = APPROVAL_STATUS ( 'not_yet_approved' ) ;
#4 = SHAPE_DEFINITION_REPRESENTATION ( #11, #122 ) ;
#5 = CALENDAR_DATE ( 2017, 1, 3 ) ;
#6 = CIRCLE ( 'NONE', #72, 38.10000000000000100 ) ;
#7 = DIRECTION ( 'NONE',  ( 1.000000000000000000, 0.0000000000000000000, 0.0000000000000000000 ) ) ;
#8 = VERTEX_POINT ( 'NONE', #171 ) ;
#9 = CARTESIAN_POINT ( 'NONE',  ( 0.0000000000000000000, 0.0000000000000000000, 1.000000000000000000 ) ) ;
#10 = DIRECTION ( 'NONE',  ( 0.0000000000000000000, 0.0000000000000000000, 1.000000000000000000 ) ) ;
#11 = PRODUCT_DEFINITION_SHAPE ( 'NONE', 'NONE',  #53 ) ;
#12 = DATE_AND_TIME ( #45, #89 ) ;
#13 = DIRECTION ( 'NONE',  ( -1.000000000000000000, 0.0000000000000000000, 0.0000000000000000000 ) ) ;
#14 = DIRECTION ( 'NONE',  ( 1.000000000000000000, 0.0000000000000000000, -0.0000000000000000000 ) ) ;
#15 = EDGE_CURVE ( 'NONE', #99, #59, #38, .T. ) ;
#16 = PERSON_AND_ORGANIZATION ( #123, #147 ) ;
#17 = ORIENTED_EDGE ( 'NONE', *, *, #58, .T. ) ;
#18 = APPLICATION_PROTOCOL_DEFINITION ( 'international standard', 'config_control_design', 1994, #30 ) ;
#19 = PLANE ( 'NONE',  #104 ) ;
#20 = DATE_AND_TIME ( #57, #103 ) ;
#21 = EDGE_CURVE ( 'NONE', #151, #8, #109, .T. ) ;
#22 = CARTESIAN_POINT ( 'NONE',  ( -38.10000000000000100, 0.0000000000000000000, 1.000000000000000000 ) ) ;
#23 = DIRECTION ( 'NONE',  ( 0.0000000000000000000, 0.0000000000000000000, 1.000000000000000000 ) ) ;
#24 = DIRECTION ( 'NONE',  ( -0.0000000000000000000, -0.0000000000000000000, -1.000000000000000000 ) ) ;
#25 = CARTESIAN_POINT ( 'NONE',  ( 0.0000000000000000000, 0.0000000000000000000, 1.000000000000000000 ) ) ;
#26 = APPROVAL_DATE_TIME ( #63, #67 ) ;
#27 = APPROVAL ( #167, 'UNSPECIFIED' ) ;
#28 = APPROVAL_PERSON_ORGANIZATION ( #69, #67, #93 ) ;
#29 = EDGE_CURVE ( 'NONE', #59, #8, #6, .T. ) ;
#30 = APPLICATION_CONTEXT ( 'configuration controlled 3d designs of mechanical parts and assemblies' ) ;
#31 = CLOSED_SHELL ( 'NONE', ( #65, #130, #154, #32 ) ) ;
#32 = ADVANCED_FACE ( 'NONE', ( #170 ), #19, .F. ) ;
#33 = EDGE_LOOP ( 'NONE', ( #107, #97 ) ) ;
#34 = CARTESIAN_POINT ( 'NONE',  ( 0.0000000000000000000, 0.0000000000000000000, 1.000000000000000000 ) ) ;
#35 = AXIS2_PLACEMENT_3D ( 'NONE', #127, #114, #157 ) ;
#36 = CC_DESIGN_APPROVAL ( #27, ( #136 ) ) ;
#37 = EDGE_CURVE ( 'NONE', #151, #99, #124, .T. ) ;
#38 = LINE ( 'NONE', #117, #82 ) ;
#39 = CYLINDRICAL_SURFACE ( 'NONE', #165, 38.10000000000000100 ) ;
#40 = LOCAL_TIME ( 15, 54, 47.00000000000000000, #84 ) ;
#41 = CC_DESIGN_PERSON_AND_ORGANIZATION_ASSIGNMENT ( #115, #156, ( #108 ) ) ;
#42 =( NAMED_UNIT ( * ) SI_UNIT ( $, .STERADIAN. ) SOLID_ANGLE_UNIT ( ) );
#43 = CC_DESIGN_PERSON_AND_ORGANIZATION_ASSIGNMENT ( #50, #1, ( #136 ) ) ;
#44 = FACE_OUTER_BOUND ( 'NONE', #70, .T. ) ;
#45 = CALENDAR_DATE ( 2017, 1, 3 ) ;
#46 = DIRECTION ( 'NONE',  ( 1.000000000000000000, 0.0000000000000000000, 0.0000000000000000000 ) ) ;
#47 = APPROVAL_STATUS ( 'not_yet_approved' ) ;
#48 = DIRECTION ( 'NONE',  ( 0.0000000000000000000, 0.0000000000000000000, 1.000000000000000000 ) ) ;
#49 = EDGE_CURVE ( 'NONE', #99, #151, #62, .T. ) ;
#50 = PERSON_AND_ORGANIZATION ( #123, #147 ) ;
#51 = DIRECTION ( 'NONE',  ( 0.0000000000000000000, 0.0000000000000000000, 1.000000000000000000 ) ) ;
#52 = CARTESIAN_POINT ( 'NONE',  ( 38.10000000000000100, 4.665904304751416100E-015, 1.000000000000000000 ) ) ;
#53 = PRODUCT_DEFINITION ( 'UNKNOWN', '', #136, #55 ) ;
#54 = CC_DESIGN_PERSON_AND_ORGANIZATION_ASSIGNMENT ( #16, #76, ( #136 ) ) ;
#55 = DESIGN_CONTEXT ( 'detailed design', #30, 'design' ) ;
#56 = ORIENTED_EDGE ( 'NONE', *, *, #37, .F. ) ;
#57 = CALENDAR_DATE ( 2017, 1, 3 ) ;
#58 = EDGE_CURVE ( 'NONE', #8, #59, #132, .T. ) ;
#59 = VERTEX_POINT ( 'NONE', #81 ) ;
#60 = ORIENTED_EDGE ( 'NONE', *, *, #15, .T. ) ;
#61 = ORIENTED_EDGE ( 'NONE', *, *, #29, .T. ) ;
#62 = CIRCLE ( 'NONE', #118, 38.10000000000000100 ) ;
#63 = DATE_AND_TIME ( #106, #145 ) ;
#64 = DIRECTION ( 'NONE',  ( 1.000000000000000000, 0.0000000000000000000, -0.0000000000000000000 ) ) ;
#65 = ADVANCED_FACE ( 'NONE', ( #88 ), #128, .T. ) ;
#66 = CALENDAR_DATE ( 2017, 1, 3 ) ;
#67 = APPROVAL ( #3, 'UNSPECIFIED' ) ;
#68 = SECURITY_CLASSIFICATION ( '', '', #166 ) ;
#69 = PERSON_AND_ORGANIZATION ( #123, #147 ) ;
#70 = EDGE_LOOP ( 'NONE', ( #146, #56, #105, #17 ) ) ;
#71 = CARTESIAN_POINT ( 'NONE',  ( 0.0000000000000000000, 0.0000000000000000000, 1.000000000000000000 ) ) ;
#72 = AXIS2_PLACEMENT_3D ( 'NONE', #96, #161, #46 ) ;
#73 = VECTOR ( 'NONE', #169, 1000.000000000000000 ) ;
#74 = LOCAL_TIME ( 15, 54, 47.00000000000000000, #95 ) ;
#75 = CC_DESIGN_APPROVAL ( #67, ( #53 ) ) ;
#76 = PERSON_AND_ORGANIZATION_ROLE ( 'design_supplier' ) ;
#77 = CC_DESIGN_PERSON_AND_ORGANIZATION_ASSIGNMENT ( #158, #159, ( #68 ) ) ;
#78 = APPROVAL_ROLE ( '' ) ;
#79 = APPROVAL_ROLE ( '' ) ;
#80 = DIRECTION ( 'NONE',  ( 0.0000000000000000000, 0.0000000000000000000, 1.000000000000000000 ) ) ;
#81 = CARTESIAN_POINT ( 'NONE',  ( 38.10000000000000100, 4.665904304751416100E-015, 0.0000000000000000000 ) ) ;
#82 = VECTOR ( 'NONE', #160, 1000.000000000000000 ) ;
#83 = FACE_OUTER_BOUND ( 'NONE', #33, .T. ) ;
#84 = COORDINATED_UNIVERSAL_TIME_OFFSET ( 5, 0, .BEHIND. ) ;
#85 =( NAMED_UNIT ( * ) PLANE_ANGLE_UNIT ( ) SI_UNIT ( $, .RADIAN. ) );
#86 = CC_DESIGN_PERSON_AND_ORGANIZATION_ASSIGNMENT ( #164, #2, ( #53 ) ) ;
#87 = CC_DESIGN_DATE_AND_TIME_ASSIGNMENT ( #12, #112, ( #68 ) ) ;
#88 = FACE_OUTER_BOUND ( 'NONE', #116, .T. ) ;
#89 = LOCAL_TIME ( 15, 54, 47.00000000000000000, #133 ) ;
#90 = AXIS2_PLACEMENT_3D ( 'NONE', #34, #10, #7 ) ;
#91 = DATE_TIME_ROLE ( 'creation_date' ) ;
#92 = MECHANICAL_CONTEXT ( 'NONE', #110, 'mechanical' ) ;
#93 = APPROVAL_ROLE ( '' ) ;
#94 = APPROVAL_DATE_TIME ( #137, #27 ) ;
#95 = COORDINATED_UNIVERSAL_TIME_OFFSET ( 5, 0, .BEHIND. ) ;
#96 = CARTESIAN_POINT ( 'NONE',  ( 0.0000000000000000000, 0.0000000000000000000, 0.0000000000000000000 ) ) ;
#97 = ORIENTED_EDGE ( 'NONE', *, *, #49, .T. ) ;
#98 = CC_DESIGN_DATE_AND_TIME_ASSIGNMENT ( #20, #91, ( #53 ) ) ;
#99 = VERTEX_POINT ( 'NONE', #52 ) ;
#100 = APPROVAL ( #47, 'UNSPECIFIED' ) ;
#101 = DIRECTION ( 'NONE',  ( -1.000000000000000000, 0.0000000000000000000, 0.0000000000000000000 ) ) ;
#102 =( LENGTH_UNIT ( ) NAMED_UNIT ( * ) SI_UNIT ( .MILLI., .METRE. ) );
#103 = LOCAL_TIME ( 15, 54, 47.00000000000000000, #140 ) ;
#104 = AXIS2_PLACEMENT_3D ( 'NONE', #141, #48, #64 ) ;
#105 = ORIENTED_EDGE ( 'NONE', *, *, #21, .T. ) ;
#106 = CALENDAR_DATE ( 2017, 1, 3 ) ;
#107 = ORIENTED_EDGE ( 'NONE', *, *, #37, .T. ) ;
#108 = PRODUCT ( 'Web Model 46102_48928', 'Web Model 46102_48928', '', ( #92 ) ) ;
#109 = LINE ( 'NONE', #22, #73 ) ;
#110 = APPLICATION_CONTEXT ( 'configuration controlled 3d designs of mechanical parts and assemblies' ) ;
#111 = ORIENTED_EDGE ( 'NONE', *, *, #58, .F. ) ;
#112 = DATE_TIME_ROLE ( 'classification_date' ) ;
#113 = CC_DESIGN_APPROVAL ( #100, ( #68 ) ) ;
#114 = DIRECTION ( 'NONE',  ( 0.0000000000000000000, 0.0000000000000000000, 1.000000000000000000 ) ) ;
#115 = PERSON_AND_ORGANIZATION ( #123, #147 ) ;
#116 = EDGE_LOOP ( 'NONE', ( #139, #60, #61, #150 ) ) ;
#117 = CARTESIAN_POINT ( 'NONE',  ( 38.10000000000000100, 4.665904304751416100E-015, 1.000000000000000000 ) ) ;
#118 = AXIS2_PLACEMENT_3D ( 'NONE', #9, #80, #173 ) ;
#119 = DIRECTION ( 'NONE',  ( -0.0000000000000000000, -0.0000000000000000000, -1.000000000000000000 ) ) ;
#120 = CC_DESIGN_SECURITY_CLASSIFICATION ( #68, ( #136 ) ) ;
#121 = APPROVAL_DATE_TIME ( #152, #100 ) ;
#122 = ADVANCED_BREP_SHAPE_REPRESENTATION ( 'Web Model 46102_48928', ( #149, #35 ), #148 ) ;
#123 = PERSON ( 'UNSPECIFIED', 'UNSPECIFIED', 'UNSPECIFIED', ('UNSPECIFIED'), ('UNSPECIFIED'), ('UNSPECIFIED') ) ;
#124 = CIRCLE ( 'NONE', #90, 38.10000000000000100 ) ;
#125 = AXIS2_PLACEMENT_3D ( 'NONE', #172, #23, #135 ) ;
#126 = APPLICATION_PROTOCOL_DEFINITION ( 'international standard', 'config_control_design', 1994, #110 ) ;
#127 = CARTESIAN_POINT ( 'NONE',  ( 0.0000000000000000000, 0.0000000000000000000, 0.0000000000000000000 ) ) ;
#128 = CYLINDRICAL_SURFACE ( 'NONE', #153, 38.10000000000000100 ) ;
#129 = APPROVAL_PERSON_ORGANIZATION ( #155, #100, #79 ) ;
#130 = ADVANCED_FACE ( 'NONE', ( #44 ), #39, .T. ) ;
#131 = CARTESIAN_POINT ( 'NONE',  ( -38.10000000000000100, 0.0000000000000000000, 1.000000000000000000 ) ) ;
#132 = CIRCLE ( 'NONE', #125, 38.10000000000000100 ) ;
#133 = COORDINATED_UNIVERSAL_TIME_OFFSET ( 5, 0, .BEHIND. ) ;
#134 = PRODUCT_RELATED_PRODUCT_CATEGORY ( 'detail', '', ( #108 ) ) ;
#135 = DIRECTION ( 'NONE',  ( 1.000000000000000000, 0.0000000000000000000, 0.0000000000000000000 ) ) ;
#136 = PRODUCT_DEFINITION_FORMATION_WITH_SPECIFIED_SOURCE ( 'ANY', '', #108, .NOT_KNOWN. ) ;
#137 = DATE_AND_TIME ( #66, #74 ) ;
#138 = APPROVAL_PERSON_ORGANIZATION ( #163, #27, #78 ) ;
#139 = ORIENTED_EDGE ( 'NONE', *, *, #49, .F. ) ;
#140 = COORDINATED_UNIVERSAL_TIME_OFFSET ( 5, 0, .BEHIND. ) ;
#141 = CARTESIAN_POINT ( 'NONE',  ( 0.0000000000000000000, 0.0000000000000000000, 0.0000000000000000000 ) ) ;
#142 = ORIENTED_EDGE ( 'NONE', *, *, #29, .F. ) ;
#143 = CARTESIAN_POINT ( 'NONE',  ( 0.0000000000000000000, 0.0000000000000000000, 1.000000000000000000 ) ) ;
#144 = PLANE ( 'NONE',  #175 ) ;
#145 = LOCAL_TIME ( 15, 54, 47.00000000000000000, #168 ) ;
#146 = ORIENTED_EDGE ( 'NONE', *, *, #15, .F. ) ;
#147 = ORGANIZATION ( 'UNSPECIFIED', 'UNSPECIFIED', '' ) ;
#148 =( GEOMETRIC_REPRESENTATION_CONTEXT ( 3 ) GLOBAL_UNCERTAINTY_ASSIGNED_CONTEXT ( ( #174 ) ) GLOBAL_UNIT_ASSIGNED_CONTEXT ( ( #102, #85, #42 ) ) REPRESENTATION_CONTEXT ( 'NONE', 'WORKASPACE' ) );
#149 = MANIFOLD_SOLID_BREP ( 'Boss-Extrude1', #31 ) ;
#150 = ORIENTED_EDGE ( 'NONE', *, *, #21, .F. ) ;
#151 = VERTEX_POINT ( 'NONE', #131 ) ;
#152 = DATE_AND_TIME ( #5, #40 ) ;
#153 = AXIS2_PLACEMENT_3D ( 'NONE', #143, #24, #13 ) ;
#154 = ADVANCED_FACE ( 'NONE', ( #83 ), #144, .T. ) ;
#155 = PERSON_AND_ORGANIZATION ( #123, #147 ) ;
#156 = PERSON_AND_ORGANIZATION_ROLE ( 'design_owner' ) ;
#157 = DIRECTION ( 'NONE',  ( 1.000000000000000000, 0.0000000000000000000, 0.0000000000000000000 ) ) ;
#158 = PERSON_AND_ORGANIZATION ( #123, #147 ) ;
#159 = PERSON_AND_ORGANIZATION_ROLE ( 'classification_officer' ) ;
#160 = DIRECTION ( 'NONE',  ( -0.0000000000000000000, -0.0000000000000000000, -1.000000000000000000 ) ) ;
#161 = DIRECTION ( 'NONE',  ( 0.0000000000000000000, 0.0000000000000000000, 1.000000000000000000 ) ) ;
#162 = EDGE_LOOP ( 'NONE', ( #111, #142 ) ) ;
#163 = PERSON_AND_ORGANIZATION ( #123, #147 ) ;
#164 = PERSON_AND_ORGANIZATION ( #123, #147 ) ;
#165 = AXIS2_PLACEMENT_3D ( 'NONE', #71, #119, #101 ) ;
#166 = SECURITY_CLASSIFICATION_LEVEL ( 'unclassified' ) ;
#167 = APPROVAL_STATUS ( 'not_yet_approved' ) ;
#168 = COORDINATED_UNIVERSAL_TIME_OFFSET ( 5, 0, .BEHIND. ) ;
#169 = DIRECTION ( 'NONE',  ( -0.0000000000000000000, -0.0000000000000000000, -1.000000000000000000 ) ) ;
#170 = FACE_OUTER_BOUND ( 'NONE', #162, .T. ) ;
#171 = CARTESIAN_POINT ( 'NONE',  ( -38.10000000000000100, 0.0000000000000000000, 0.0000000000000000000 ) ) ;
#172 = CARTESIAN_POINT ( 'NONE',  ( 0.0000000000000000000, 0.0000000000000000000, 0.0000000000000000000 ) ) ;
#173 = DIRECTION ( 'NONE',  ( 1.000000000000000000, 0.0000000000000000000, 0.0000000000000000000 ) ) ;
#174 = UNCERTAINTY_MEASURE_WITH_UNIT (LENGTH_MEASURE( 1.000000000000000100E-005 ), #102, 'distance_accuracy_value', 'NONE');
#175 = AXIS2_PLACEMENT_3D ( 'NONE', #25, #51, #14 ) ;
ENDSEC;
END-ISO-10303-21;
