ISO-10303-21;
HEADER;
FILE_DESCRIPTION (( 'STEP AP203' ),
    '1' );
FILE_NAME ('20176-E0W.STEP',
    '2018-06-01T18:08:54',
    ( 'admin' ),
    ( '' ),
    'SwSTEP 2.0',
    'SolidWorks 2016',
    '' );
FILE_SCHEMA (( 'CONFIG_CONTROL_DESIGN' ));
ENDSEC;

DATA;
#1 = CONICAL_SURFACE ( 'NONE', #23, 0.5000000000000000000, 0.7853981633974420600 ) ;
#2 = ORIENTED_EDGE ( 'NONE', *, *, #159, .T. ) ;
#3 = AXIS2_PLACEMENT_3D ( 'NONE', #274, #102, #148 ) ;
#4 = CARTESIAN_POINT ( 'NONE',  ( 6.028863755146978500E-017, 0.4922940850655481100, -0.08420701082185151600 ) ) ;
#5 = AXIS2_PLACEMENT_3D ( 'NONE', #245, #60, #208 ) ;
#6 = AXIS2_PLACEMENT_3D ( 'NONE', #138, #111, #307 ) ;
#7 = DIRECTION ( 'NONE',  ( 1.224646799147353500E-016, 1.000000000000000000, 0.0000000000000000000 ) ) ;
#8 = PERSON_AND_ORGANIZATION_ROLE ( 'creator' ) ;
#9 = FACE_OUTER_BOUND ( 'NONE', #294, .T. ) ;
#10 = CARTESIAN_POINT ( 'NONE',  ( 0.0000000000000000000, 0.0000000000000000000, 2.392738664356787400 ) ) ;
#11 = VECTOR ( 'NONE', #295, 39.37007874015748100 ) ;
#12 = FACE_OUTER_BOUND ( 'NONE', #178, .T. ) ;
#13 = ADVANCED_FACE ( 'NONE', ( #12 ), #146, .T. ) ;
#14 = AXIS2_PLACEMENT_3D ( 'NONE', #292, #320, #221 ) ;
#15 = AXIS2_PLACEMENT_3D ( 'NONE', #260, #311, #256 ) ;
#16 = CIRCLE ( 'NONE', #265, 2.525393700787401200 ) ;
#17 = MECHANICAL_CONTEXT ( 'NONE', #125, 'mechanical' ) ;
#18 = CARTESIAN_POINT ( 'NONE',  ( 0.0000000000000000000, 0.0000000000000000000, 1.237974884829228200 ) ) ;
#19 = DATE_TIME_ROLE ( 'creation_date' ) ;
#20 = LINE ( 'NONE', #170, #28 ) ;
#21 = AXIS2_PLACEMENT_3D ( 'NONE', #316, #25, #58 ) ;
#22 = DIRECTION ( 'NONE',  ( -0.0000000000000000000, -1.836909530733566100E-016, 1.000000000000000000 ) ) ;
#23 = AXIS2_PLACEMENT_3D ( 'NONE', #181, #231, #162 ) ;
#24 = APPROVAL_DATE_TIME ( #263, #244 ) ;
#25 = DIRECTION ( 'NONE',  ( 1.000000000000000000, 0.0000000000000000000, 0.0000000000000000000 ) ) ;
#26 = SPHERICAL_SURFACE ( 'NONE', #21, 2.525393700787401200 ) ;
#27 = CARTESIAN_POINT ( 'NONE',  ( 0.0000000000000000000, -1.832504960549445600E-017, 0.1245854969778802100 ) ) ;
#28 = VECTOR ( 'NONE', #269, 39.37007874015748100 ) ;
#29 = CIRCLE ( 'NONE', #248, 0.4922940850655483400 ) ;
#30 = APPROVAL_ROLE ( '' ) ;
#31 = AXIS2_PLACEMENT_3D ( 'NONE', #257, #299, #327 ) ;
#32 = FACE_OUTER_BOUND ( 'NONE', #78, .T. ) ;
#33 = AXIS2_PLACEMENT_3D ( 'NONE', #175, #234, #112 ) ;
#34 = CALENDAR_DATE ( 2018, 1, 6 ) ;
#35 = FACE_OUTER_BOUND ( 'NONE', #203, .T. ) ;
#36 = CC_DESIGN_PERSON_AND_ORGANIZATION_ASSIGNMENT ( #144, #124, ( #66 ) ) ;
#37 = CARTESIAN_POINT ( 'NONE',  ( 0.0000000000000000000, 0.0000000000000000000, 0.02482527853001582900 ) ) ;
#38 = CALENDAR_DATE ( 2018, 1, 6 ) ;
#39 = CARTESIAN_POINT ( 'NONE',  ( 0.0000000000000000000, -0.5000000000000000000, -0.07478897295609113200 ) ) ;
#40 = LINE ( 'NONE', #121, #278 ) ;
#41 = ORIENTED_EDGE ( 'NONE', *, *, #103, .F. ) ;
#42 = DIRECTION ( 'NONE',  ( -0.0000000000000000000, -1.836909530733566100E-016, 1.000000000000000000 ) ) ;
#43 = ORIENTED_EDGE ( 'NONE', *, *, #228, .T. ) ;
#44 = AXIS2_PLACEMENT_3D ( 'NONE', #59, #127, #51 ) ;
#45 = CC_DESIGN_SECURITY_CLASSIFICATION ( #66, ( #57 ) ) ;
#46 = AXIS2_PLACEMENT_3D ( 'NONE', #77, #205, #322 ) ;
#47 = DIRECTION ( 'NONE',  ( -0.0000000000000000000, -1.836909530733573500E-016, 1.000000000000000000 ) ) ;
#48 = VECTOR ( 'NONE', #251, 39.37007874015748900 ) ;
#49 = DIRECTION ( 'NONE',  ( -1.000000000000000000, 0.0000000000000000000, -0.0000000000000000000 ) ) ;
#50 = APPROVAL_DATE_TIME ( #132, #154 ) ;
#51 = DIRECTION ( 'NONE',  ( 0.0000000000000000000, -1.000000000000000000, -1.707404996040164500E-016 ) ) ;
#52 = CARTESIAN_POINT ( 'NONE',  ( 0.0000000000000000000, -0.5000000000000000000, -0.07478897295609114600 ) ) ;
#53 = ORIENTED_EDGE ( 'NONE', *, *, #166, .T. ) ;
#54 = EDGE_CURVE ( 'NONE', #73, #71, #116, .T. ) ;
#55 = CARTESIAN_POINT ( 'NONE',  ( 0.0000000000000000000, 0.0000000000000000000, 1.237974884829228200 ) ) ;
#56 = ORIENTED_EDGE ( 'NONE', *, *, #68, .T. ) ;
#57 = PRODUCT_DEFINITION_FORMATION_WITH_SPECIFIED_SOURCE ( 'ANY', '', #72, .NOT_KNOWN. ) ;
#58 = DIRECTION ( 'NONE',  ( 0.0000000000000000000, -1.000000000000000000, -2.163502659258626300E-016 ) ) ;
#59 = CARTESIAN_POINT ( 'NONE',  ( 0.0000000000000000000, -1.832504960549445600E-017, 0.1245854969778802100 ) ) ;
#60 = DIRECTION ( 'NONE',  ( -0.0000000000000000000, -1.836909530733573500E-016, 1.000000000000000000 ) ) ;
#61 = DIRECTION ( 'NONE',  ( 0.0000000000000000000, -1.000000000000000000, -1.734131129985876000E-016 ) ) ;
#62 = PERSON_AND_ORGANIZATION_ROLE ( 'creator' ) ;
#63 = EDGE_CURVE ( 'NONE', #71, #73, #171, .T. ) ;
#64 = ORIENTED_EDGE ( 'NONE', *, *, #122, .F. ) ;
#65 = DIRECTION ( 'NONE',  ( 0.0000000000000000000, 1.836909530733573500E-016, -1.000000000000000000 ) ) ;
#66 = SECURITY_CLASSIFICATION ( '', '', #216 ) ;
#67 = SPHERICAL_SURFACE ( 'NONE', #172, 2.525393700787401200 ) ;
#68 = EDGE_CURVE ( 'NONE', #222, #70, #110, .T. ) ;
#69 = APPROVAL_DATE_TIME ( #145, #136 ) ;
#70 = VERTEX_POINT ( 'NONE', #302 ) ;
#71 = VERTEX_POINT ( 'NONE', #235 ) ;
#72 = PRODUCT ( '20176-E0W', '20176-E0W', '', ( #17 ) ) ;
#73 = VERTEX_POINT ( 'NONE', #233 ) ;
#74 = FACE_OUTER_BOUND ( 'NONE', #179, .T. ) ;
#75 = CIRCLE ( 'NONE', #5, 0.5000000000000000000 ) ;
#76 = APPROVAL_PERSON_ORGANIZATION ( #174, #154, #30 ) ;
#77 = CARTESIAN_POINT ( 'NONE',  ( 0.0000000000000000000, 1.829823679517199700E-017, -0.07478897295609103500 ) ) ;
#78 = EDGE_LOOP ( 'NONE', ( #252, #193, #201 ) ) ;
#79 = AXIS2_PLACEMENT_3D ( 'NONE', #264, #209, #330 ) ;
#80 = CIRCLE ( 'NONE', #44, 0.5000000000000000000 ) ;
#81 = ORIENTED_EDGE ( 'NONE', *, *, #187, .F. ) ;
#82 = DIRECTION ( 'NONE',  ( 0.0000000000000000000, -0.6332499777625642000, 0.7739473274478774200 ) ) ;
#83 = DIRECTION ( 'NONE',  ( 0.0000000000000000000, -1.000000000000000000, -1.878145495644180800E-016 ) ) ;
#84 = LOCAL_TIME ( 14, 8, 54.00000000000000000, #212 ) ;
#85 = PERSON_AND_ORGANIZATION ( #243, #149 ) ;
#86 = DIRECTION ( 'NONE',  ( 1.000000000000000000, 0.0000000000000000000, 0.0000000000000000000 ) ) ;
#87 = ORIENTED_EDGE ( 'NONE', *, *, #204, .F. ) ;
#88 = AXIS2_PLACEMENT_3D ( 'NONE', #55, #219, #268 ) ;
#89 = CARTESIAN_POINT ( 'NONE',  ( 0.0000000000000000000, 1.829823679517200600E-017, -0.07478897295609104900 ) ) ;
#90 = DIRECTION ( 'NONE',  ( 0.0000000000000000000, -1.000000000000000000, -1.878145495644180800E-016 ) ) ;
#91 = CARTESIAN_POINT ( 'NONE',  ( 6.123233995736766000E-017, 0.5000000000000000000, -0.07478897295609093800 ) ) ;
#92 = CARTESIAN_POINT ( 'NONE',  ( 0.0000000000000000000, 0.0000000000000000000, 2.392738664356787400 ) ) ;
#93 = EDGE_LOOP ( 'NONE', ( #288, #163, #150 ) ) ;
#94 = ORIENTED_EDGE ( 'NONE', *, *, #54, .T. ) ;
#95 = APPROVAL_ROLE ( '' ) ;
#96 = CARTESIAN_POINT ( 'NONE',  ( 6.123233995736766000E-017, -0.5000000000000000000, 0.1245854969778801100 ) ) ;
#97 = AXIS2_PLACEMENT_3D ( 'NONE', #120, #255, #7 ) ;
#98 = LOCAL_TIME ( 14, 8, 54.00000000000000000, #287 ) ;
#99 = CARTESIAN_POINT ( 'NONE',  ( 0.0000000000000000000, 2.971285965137297700E-016, 0.02482527853001570800 ) ) ;
#100 = ADVANCED_FACE ( 'NONE', ( #74 ), #291, .T. ) ;
#101 = CLOSED_SHELL ( 'NONE', ( #210, #100, #282, #214, #183, #304, #303, #301, #325, #13 ) ) ;
#102 = DIRECTION ( 'NONE',  ( 0.0000000000000000000, 1.836909530733566100E-016, -1.000000000000000000 ) ) ;
#103 = EDGE_CURVE ( 'NONE', #190, #306, #182, .T. ) ;
#104 = MANIFOLD_SOLID_BREP ( '20176-001-1-solid1', #101 ) ;
#105 =( GEOMETRIC_REPRESENTATION_CONTEXT ( 3 ) GLOBAL_UNCERTAINTY_ASSIGNED_CONTEXT ( ( #271 ) ) GLOBAL_UNIT_ASSIGNED_CONTEXT ( ( #177, #249, #168 ) ) REPRESENTATION_CONTEXT ( 'NONE', 'WORKASPACE' ) );
#106 = APPROVAL_STATUS ( 'not_yet_approved' ) ;
#107 = CC_DESIGN_APPROVAL ( #244, ( #229 ) ) ;
#108 = SPHERICAL_SURFACE ( 'NONE', #155, 1.213149606299212600 ) ;
#109 = EDGE_CURVE ( 'NONE', #189, #158, #185, .T. ) ;
#110 = LINE ( 'NONE', #91, #11 ) ;
#111 = DIRECTION ( 'NONE',  ( 1.000000000000000000, 0.0000000000000000000, 0.0000000000000000000 ) ) ;
#112 = DIRECTION ( 'NONE',  ( 0.0000000000000000000, -1.000000000000000000, -1.726631975225924800E-016 ) ) ;
#113 = PERSON_AND_ORGANIZATION ( #243, #149 ) ;
#114 = FACE_OUTER_BOUND ( 'NONE', #277, .T. ) ;
#115 = EDGE_CURVE ( 'NONE', #135, #189, #16, .T. ) ;
#116 = CIRCLE ( 'NONE', #33, 0.4944322300693972400 ) ;
#117 = DIRECTION ( 'NONE',  ( 0.0000000000000000000, 0.0000000000000000000, 1.000000000000000000 ) ) ;
#118 = ORIENTED_EDGE ( 'NONE', *, *, #204, .T. ) ;
#119 = CC_DESIGN_APPROVAL ( #154, ( #66 ) ) ;
#120 = CARTESIAN_POINT ( 'NONE',  ( 0.0000000000000000000, 0.0000000000000000000, 2.392738664356787400 ) ) ;
#121 = CARTESIAN_POINT ( 'NONE',  ( 6.123233995736766000E-017, 0.5000000000000000000, 0.02482527853001592300 ) ) ;
#122 = EDGE_CURVE ( 'NONE', #222, #189, #29, .T. ) ;
#123 = ORIENTED_EDGE ( 'NONE', *, *, #232, .T. ) ;
#124 = PERSON_AND_ORGANIZATION_ROLE ( 'classification_officer' ) ;
#125 = APPLICATION_CONTEXT ( 'configuration controlled 3d designs of mechanical parts and assemblies' ) ;
#126 = CC_DESIGN_PERSON_AND_ORGANIZATION_ASSIGNMENT ( #157, #164, ( #72 ) ) ;
#127 = DIRECTION ( 'NONE',  ( -0.0000000000000000000, -1.836909530733566100E-016, 1.000000000000000000 ) ) ;
#128 = VERTEX_POINT ( 'NONE', #99 ) ;
#129 = EDGE_CURVE ( 'NONE', #158, #306, #20, .T. ) ;
#130 = CIRCLE ( 'NONE', #6, 1.213149606299212600 ) ;
#131 = AXIS2_PLACEMENT_3D ( 'NONE', #152, #133, #276 ) ;
#132 = DATE_AND_TIME ( #141, #84 ) ;
#133 = DIRECTION ( 'NONE',  ( -0.0000000000000000000, -1.836909530733566100E-016, 1.000000000000000000 ) ) ;
#134 = SPHERICAL_SURFACE ( 'NONE', #14, 1.213149606299212600 ) ;
#135 = VERTEX_POINT ( 'NONE', #273 ) ;
#136 = APPROVAL ( #106, 'UNSPECIFIED' ) ;
#137 = CC_DESIGN_PERSON_AND_ORGANIZATION_ASSIGNMENT ( #113, #62, ( #57 ) ) ;
#138 = CARTESIAN_POINT ( 'NONE',  ( 0.0000000000000000000, 0.0000000000000000000, 1.237974884829228200 ) ) ;
#139 = PERSON_AND_ORGANIZATION ( #243, #149 ) ;
#140 = LOCAL_TIME ( 14, 8, 54.00000000000000000, #308 ) ;
#141 = CALENDAR_DATE ( 2018, 1, 6 ) ;
#142 = LINE ( 'NONE', #96, #286 ) ;
#143 = PRODUCT_DEFINITION_SHAPE ( 'NONE', 'NONE',  #229 ) ;
#144 = PERSON_AND_ORGANIZATION ( #243, #149 ) ;
#145 = DATE_AND_TIME ( #279, #140 ) ;
#146 = CONICAL_SURFACE ( 'NONE', #46, 0.5000000000000000000, 0.6857452580073562000 ) ;
#147 = DIRECTION ( 'NONE',  ( 0.0000000000000000000, -1.000000000000000000, -2.163502659258626300E-016 ) ) ;
#148 = DIRECTION ( 'NONE',  ( 0.0000000000000000000, 1.000000000000000000, 1.707404996040164500E-016 ) ) ;
#149 = ORGANIZATION ( 'UNSPECIFIED', 'UNSPECIFIED', '' ) ;
#150 = ORIENTED_EDGE ( 'NONE', *, *, #63, .T. ) ;
#151 = EDGE_CURVE ( 'NONE', #189, #222, #227, .T. ) ;
#152 = CARTESIAN_POINT ( 'NONE',  ( 0.0000000000000000000, 0.0000000000000000000, 0.02482527853001582900 ) ) ;
#153 = SHAPE_DEFINITION_REPRESENTATION ( #143, #324 ) ;
#154 = APPROVAL ( #198, 'UNSPECIFIED' ) ;
#155 = AXIS2_PLACEMENT_3D ( 'NONE', #18, #160, #188 ) ;
#156 = DIRECTION ( 'NONE',  ( 0.0000000000000000000, -1.000000000000000000, -1.707404996040164500E-016 ) ) ;
#157 = PERSON_AND_ORGANIZATION ( #243, #149 ) ;
#158 = VERTEX_POINT ( 'NONE', #52 ) ;
#159 = EDGE_CURVE ( 'NONE', #70, #190, #40, .T. ) ;
#160 = DIRECTION ( 'NONE',  ( -1.000000000000000000, 0.0000000000000000000, 0.0000000000000000000 ) ) ;
#161 = ORIENTED_EDGE ( 'NONE', *, *, #228, .F. ) ;
#162 = DIRECTION ( 'NONE',  ( 0.0000000000000000000, 1.000000000000000000, 1.707404996040164500E-016 ) ) ;
#163 = ORIENTED_EDGE ( 'NONE', *, *, #187, .T. ) ;
#164 = PERSON_AND_ORGANIZATION_ROLE ( 'design_owner' ) ;
#165 = APPROVAL_PERSON_ORGANIZATION ( #85, #244, #280 ) ;
#166 = EDGE_CURVE ( 'NONE', #71, #190, #250, .T. ) ;
#167 = ORIENTED_EDGE ( 'NONE', *, *, #196, .F. ) ;
#168 =( NAMED_UNIT ( * ) SI_UNIT ( $, .STERADIAN. ) SOLID_ANGLE_UNIT ( ) );
#169 = DATE_AND_TIME ( #34, #98 ) ;
#170 = CARTESIAN_POINT ( 'NONE',  ( 0.0000000000000000000, -0.5000000000000000000, 0.02482527853001573500 ) ) ;
#171 = CIRCLE ( 'NONE', #31, 0.4944322300693972400 ) ;
#172 = AXIS2_PLACEMENT_3D ( 'NONE', #92, #184, #147 ) ;
#173 = LENGTH_MEASURE_WITH_UNIT ( LENGTH_MEASURE( 0.02539999999999999900 ), #225 );
#174 = PERSON_AND_ORGANIZATION ( #243, #149 ) ;
#175 = CARTESIAN_POINT ( 'NONE',  ( 0.0000000000000000000, -1.934779857054006500E-017, 0.1301532669084830300 ) ) ;
#176 = ORIENTED_EDGE ( 'NONE', *, *, #223, .F. ) ;
#177 =( CONVERSION_BASED_UNIT ( 'INCH', #173 ) LENGTH_UNIT ( ) NAMED_UNIT ( #220 ) );
#178 = EDGE_LOOP ( 'NONE', ( #262, #241, #297, #176 ) ) ;
#179 = EDGE_LOOP ( 'NONE', ( #226, #312, #43, #281 ) ) ;
#180 = ORIENTED_EDGE ( 'NONE', *, *, #63, .F. ) ;
#181 = CARTESIAN_POINT ( 'NONE',  ( 0.0000000000000000000, -1.832504960549445600E-017, 0.1245854969778802100 ) ) ;
#182 = CIRCLE ( 'NONE', #315, 0.5000000000000000000 ) ;
#183 = ADVANCED_FACE ( 'NONE', ( #9 ), #134, .F. ) ;
#184 = DIRECTION ( 'NONE',  ( 1.000000000000000000, 0.0000000000000000000, 0.0000000000000000000 ) ) ;
#185 = LINE ( 'NONE', #39, #246 ) ;
#186 = EDGE_LOOP ( 'NONE', ( #318, #123, #317 ) ) ;
#187 = EDGE_CURVE ( 'NONE', #128, #71, #130, .T. ) ;
#188 = DIRECTION ( 'NONE',  ( 0.0000000000000000000, 1.000000000000000000, 2.251864056567543900E-016 ) ) ;
#189 = VERTEX_POINT ( 'NONE', #238 ) ;
#190 = VERTEX_POINT ( 'NONE', #191 ) ;
#191 = CARTESIAN_POINT ( 'NONE',  ( 6.123233995736766000E-017, 0.5000000000000000000, 0.1245854969778802900 ) ) ;
#192 = PERSON_AND_ORGANIZATION ( #243, #149 ) ;
#193 = ORIENTED_EDGE ( 'NONE', *, *, #115, .T. ) ;
#194 = APPLICATION_PROTOCOL_DEFINITION ( 'international standard', 'config_control_design', 1994, #125 ) ;
#195 = ORIENTED_EDGE ( 'NONE', *, *, #207, .T. ) ;
#196 = EDGE_CURVE ( 'NONE', #73, #306, #142, .T. ) ;
#197 = APPROVAL_PERSON_ORGANIZATION ( #192, #136, #95 ) ;
#198 = APPROVAL_STATUS ( 'not_yet_approved' ) ;
#199 = CARTESIAN_POINT ( 'NONE',  ( 0.0000000000000000000, 4.549925117844947400E-016, -0.08420701082185153000 ) ) ;
#200 = FACE_OUTER_BOUND ( 'NONE', #270, .T. ) ;
#201 = ORIENTED_EDGE ( 'NONE', *, *, #151, .T. ) ;
#202 = ORIENTED_EDGE ( 'NONE', *, *, #129, .F. ) ;
#203 = EDGE_LOOP ( 'NONE', ( #167, #180, #53, #290 ) ) ;
#204 = EDGE_CURVE ( 'NONE', #158, #70, #75, .T. ) ;
#205 = DIRECTION ( 'NONE',  ( -0.0000000000000000000, -1.836909530733573500E-016, 1.000000000000000000 ) ) ;
#206 = DATE_AND_TIME ( #38, #213 ) ;
#207 = EDGE_CURVE ( 'NONE', #128, #73, #275, .T. ) ;
#208 = DIRECTION ( 'NONE',  ( 0.0000000000000000000, -1.000000000000000000, -1.878145495644180800E-016 ) ) ;
#209 = DIRECTION ( 'NONE',  ( -0.0000000000000000000, -1.836909530733573500E-016, 1.000000000000000000 ) ) ;
#210 = ADVANCED_FACE ( 'NONE', ( #200 ), #328, .T. ) ;
#211 = AXIS2_PLACEMENT_3D ( 'NONE', #89, #47, #83 ) ;
#212 = COORDINATED_UNIVERSAL_TIME_OFFSET ( 5, 0, .BEHIND. ) ;
#213 = LOCAL_TIME ( 14, 8, 54.00000000000000000, #293 ) ;
#214 = ADVANCED_FACE ( 'NONE', ( #300 ), #67, .T. ) ;
#215 = AXIS2_PLACEMENT_3D ( 'NONE', #37, #22, #90 ) ;
#216 = SECURITY_CLASSIFICATION_LEVEL ( 'unclassified' ) ;
#217 = CC_DESIGN_DATE_AND_TIME_ASSIGNMENT ( #206, #19, ( #229 ) ) ;
#218 = CC_DESIGN_PERSON_AND_ORGANIZATION_ASSIGNMENT ( #139, #298, ( #57 ) ) ;
#219 = DIRECTION ( 'NONE',  ( -1.000000000000000000, 1.224646799147353200E-016, 2.249565377136128300E-032 ) ) ;
#220 = DIMENSIONAL_EXPONENTS ( 1.000000000000000000, 0.0000000000000000000, 0.0000000000000000000, 0.0000000000000000000, 0.0000000000000000000, 0.0000000000000000000, 0.0000000000000000000 ) ;
#221 = DIRECTION ( 'NONE',  ( 0.0000000000000000000, 1.000000000000000000, 2.251864056567543900E-016 ) ) ;
#222 = VERTEX_POINT ( 'NONE', #4 ) ;
#223 = EDGE_CURVE ( 'NONE', #70, #158, #272, .T. ) ;
#224 = CYLINDRICAL_SURFACE ( 'NONE', #215, 0.5000000000000000000 ) ;
#225 =( LENGTH_UNIT ( ) NAMED_UNIT ( * ) SI_UNIT ( $, .METRE. ) );
#226 = ORIENTED_EDGE ( 'NONE', *, *, #54, .F. ) ;
#227 = CIRCLE ( 'NONE', #15, 0.4922940850655483400 ) ;
#228 = EDGE_CURVE ( 'NONE', #306, #190, #80, .T. ) ;
#229 = PRODUCT_DEFINITION ( 'UNKNOWN', '', #57, #284 ) ;
#230 = COORDINATED_UNIVERSAL_TIME_OFFSET ( 5, 0, .BEHIND. ) ;
#231 = DIRECTION ( 'NONE',  ( 0.0000000000000000000, 1.836909530733566100E-016, -1.000000000000000000 ) ) ;
#232 = EDGE_CURVE ( 'NONE', #135, #222, #236, .T. ) ;
#233 = CARTESIAN_POINT ( 'NONE',  ( -6.055048479497748300E-017, -0.4944322300693967900, 0.1301532669084828900 ) ) ;
#234 = DIRECTION ( 'NONE',  ( -0.0000000000000000000, -1.836909530733566100E-016, 1.000000000000000000 ) ) ;
#235 = CARTESIAN_POINT ( 'NONE',  ( 0.0000000000000000000, 0.4944322300693969600, 0.1301532669084831100 ) ) ;
#236 = CIRCLE ( 'NONE', #97, 2.525393700787401200 ) ;
#237 = CYLINDRICAL_SURFACE ( 'NONE', #131, 0.5000000000000000000 ) ;
#238 = CARTESIAN_POINT ( 'NONE',  ( 0.0000000000000000000, -0.4922940850655471700, -0.08420701082185159900 ) ) ;
#239 = ORIENTED_EDGE ( 'NONE', *, *, #129, .T. ) ;
#240 = APPLICATION_CONTEXT ( 'configuration controlled 3d designs of mechanical parts and assemblies' ) ;
#241 = ORIENTED_EDGE ( 'NONE', *, *, #151, .F. ) ;
#242 = CC_DESIGN_DATE_AND_TIME_ASSIGNMENT ( #169, #309, ( #66 ) ) ;
#243 = PERSON ( 'UNSPECIFIED', 'UNSPECIFIED', 'UNSPECIFIED', ('UNSPECIFIED'), ('UNSPECIFIED'), ('UNSPECIFIED') ) ;
#244 = APPROVAL ( #321, 'UNSPECIFIED' ) ;
#245 = CARTESIAN_POINT ( 'NONE',  ( 0.0000000000000000000, 1.829823679517200600E-017, -0.07478897295609104900 ) ) ;
#246 = VECTOR ( 'NONE', #82, 39.37007874015748900 ) ;
#247 = ORIENTED_EDGE ( 'NONE', *, *, #159, .F. ) ;
#248 = AXIS2_PLACEMENT_3D ( 'NONE', #199, #65, #61 ) ;
#249 =( NAMED_UNIT ( * ) PLANE_ANGLE_UNIT ( ) SI_UNIT ( $, .RADIAN. ) );
#250 = LINE ( 'NONE', #323, #48 ) ;
#251 = DIRECTION ( 'NONE',  ( 0.0000000000000000000, 0.7071067811865431300, -0.7071067811865516800 ) ) ;
#252 = ORIENTED_EDGE ( 'NONE', *, *, #232, .F. ) ;
#253 = DIRECTION ( 'NONE',  ( 0.0000000000000000000, 0.0000000000000000000, 1.000000000000000000 ) ) ;
#254 = FACE_OUTER_BOUND ( 'NONE', #93, .T. ) ;
#255 = DIRECTION ( 'NONE',  ( 1.000000000000000000, -1.224646799147353200E-016, -2.249565377136128300E-032 ) ) ;
#256 = DIRECTION ( 'NONE',  ( 0.0000000000000000000, -1.000000000000000000, -1.734131129985876000E-016 ) ) ;
#257 = CARTESIAN_POINT ( 'NONE',  ( 0.0000000000000000000, -1.934779857054006500E-017, 0.1301532669084830300 ) ) ;
#258 = CC_DESIGN_APPROVAL ( #136, ( #57 ) ) ;
#259 = ORIENTED_EDGE ( 'NONE', *, *, #223, .T. ) ;
#260 = CARTESIAN_POINT ( 'NONE',  ( 0.0000000000000000000, 4.549925117844947400E-016, -0.08420701082185153000 ) ) ;
#261 = PERSON_AND_ORGANIZATION ( #243, #149 ) ;
#262 = ORIENTED_EDGE ( 'NONE', *, *, #68, .F. ) ;
#263 = DATE_AND_TIME ( #329, #289 ) ;
#264 = CARTESIAN_POINT ( 'NONE',  ( 0.0000000000000000000, 1.829823679517199700E-017, -0.07478897295609103500 ) ) ;
#265 = AXIS2_PLACEMENT_3D ( 'NONE', #10, #49, #253 ) ;
#266 = ORIENTED_EDGE ( 'NONE', *, *, #109, .F. ) ;
#267 = APPLICATION_PROTOCOL_DEFINITION ( 'international standard', 'config_control_design', 1994, #240 ) ;
#268 = DIRECTION ( 'NONE',  ( -1.224646799147353200E-016, -1.000000000000000000, 0.0000000000000000000 ) ) ;
#269 = DIRECTION ( 'NONE',  ( -0.0000000000000000000, -1.836909530733566100E-016, 1.000000000000000000 ) ) ;
#270 = EDGE_LOOP ( 'NONE', ( #64, #56, #87, #266 ) ) ;
#271 = UNCERTAINTY_MEASURE_WITH_UNIT (LENGTH_MEASURE( 1.000000000000000100E-005 ), #177, 'distance_accuracy_value', 'NONE');
#272 = CIRCLE ( 'NONE', #211, 0.5000000000000000000 ) ;
#273 = CARTESIAN_POINT ( 'NONE',  ( 0.0000000000000000000, 3.092562101702799800E-016, -0.1326550364306142100 ) ) ;
#274 = CARTESIAN_POINT ( 'NONE',  ( 0.0000000000000000000, -1.832504960549445600E-017, 0.1245854969778802100 ) ) ;
#275 = CIRCLE ( 'NONE', #88, 1.213149606299212600 ) ;
#276 = DIRECTION ( 'NONE',  ( 0.0000000000000000000, -1.000000000000000000, -1.878145495644180800E-016 ) ) ;
#277 = EDGE_LOOP ( 'NONE', ( #118, #2, #161, #202 ) ) ;
#278 = VECTOR ( 'NONE', #42, 39.37007874015748100 ) ;
#279 = CALENDAR_DATE ( 2018, 1, 6 ) ;
#280 = APPROVAL_ROLE ( '' ) ;
#281 = ORIENTED_EDGE ( 'NONE', *, *, #166, .F. ) ;
#282 = ADVANCED_FACE ( 'NONE', ( #114 ), #237, .T. ) ;
#283 = DIRECTION ( 'NONE',  ( 8.659560562354878600E-017, -0.7071067811865430200, -0.7071067811865520100 ) ) ;
#284 = DESIGN_CONTEXT ( 'detailed design', #240, 'design' ) ;
#285 = CARTESIAN_POINT ( 'NONE',  ( 0.0000000000000000000, -0.5000000000000000000, 0.1245854969778801100 ) ) ;
#286 = VECTOR ( 'NONE', #283, 39.37007874015748100 ) ;
#287 = COORDINATED_UNIVERSAL_TIME_OFFSET ( 5, 0, .BEHIND. ) ;
#288 = ORIENTED_EDGE ( 'NONE', *, *, #207, .F. ) ;
#289 = LOCAL_TIME ( 14, 8, 54.00000000000000000, #230 ) ;
#290 = ORIENTED_EDGE ( 'NONE', *, *, #103, .T. ) ;
#291 = CONICAL_SURFACE ( 'NONE', #3, 0.5000000000000000000, 0.7853981633974420600 ) ;
#292 = CARTESIAN_POINT ( 'NONE',  ( 0.0000000000000000000, 0.0000000000000000000, 1.237974884829228200 ) ) ;
#293 = COORDINATED_UNIVERSAL_TIME_OFFSET ( 5, 0, .BEHIND. ) ;
#294 = EDGE_LOOP ( 'NONE', ( #81, #195, #94 ) ) ;
#295 = DIRECTION ( 'NONE',  ( 7.755075583270566900E-017, 0.6332499777625639800, 0.7739473274478775300 ) ) ;
#296 = EDGE_LOOP ( 'NONE', ( #247, #259, #239, #41 ) ) ;
#297 = ORIENTED_EDGE ( 'NONE', *, *, #109, .T. ) ;
#298 = PERSON_AND_ORGANIZATION_ROLE ( 'design_supplier' ) ;
#299 = DIRECTION ( 'NONE',  ( -0.0000000000000000000, -1.836909530733566100E-016, 1.000000000000000000 ) ) ;
#300 = FACE_OUTER_BOUND ( 'NONE', #186, .T. ) ;
#301 = ADVANCED_FACE ( 'NONE', ( #314 ), #224, .T. ) ;
#302 = CARTESIAN_POINT ( 'NONE',  ( 6.123233995736766000E-017, 0.5000000000000000000, -0.07478897295609096600 ) ) ;
#303 = ADVANCED_FACE ( 'NONE', ( #32 ), #26, .T. ) ;
#304 = ADVANCED_FACE ( 'NONE', ( #254 ), #108, .F. ) ;
#305 = AXIS2_PLACEMENT_3D ( 'NONE', #319, #117, #86 ) ;
#306 = VERTEX_POINT ( 'NONE', #285 ) ;
#307 = DIRECTION ( 'NONE',  ( 0.0000000000000000000, 0.0000000000000000000, -1.000000000000000000 ) ) ;
#308 = COORDINATED_UNIVERSAL_TIME_OFFSET ( 5, 0, .BEHIND. ) ;
#309 = DATE_TIME_ROLE ( 'classification_date' ) ;
#310 = PRODUCT_RELATED_PRODUCT_CATEGORY ( 'detail', '', ( #72 ) ) ;
#311 = DIRECTION ( 'NONE',  ( 0.0000000000000000000, 1.836909530733573500E-016, -1.000000000000000000 ) ) ;
#312 = ORIENTED_EDGE ( 'NONE', *, *, #196, .T. ) ;
#313 = CC_DESIGN_PERSON_AND_ORGANIZATION_ASSIGNMENT ( #261, #8, ( #229 ) ) ;
#314 = FACE_OUTER_BOUND ( 'NONE', #296, .T. ) ;
#315 = AXIS2_PLACEMENT_3D ( 'NONE', #27, #326, #156 ) ;
#316 = CARTESIAN_POINT ( 'NONE',  ( 0.0000000000000000000, 0.0000000000000000000, 2.392738664356787400 ) ) ;
#317 = ORIENTED_EDGE ( 'NONE', *, *, #122, .T. ) ;
#318 = ORIENTED_EDGE ( 'NONE', *, *, #115, .F. ) ;
#319 = CARTESIAN_POINT ( 'NONE',  ( 0.0000000000000000000, 0.0000000000000000000, 0.0000000000000000000 ) ) ;
#320 = DIRECTION ( 'NONE',  ( -1.000000000000000000, 0.0000000000000000000, 0.0000000000000000000 ) ) ;
#321 = APPROVAL_STATUS ( 'not_yet_approved' ) ;
#322 = DIRECTION ( 'NONE',  ( 0.0000000000000000000, -1.000000000000000000, -1.878145495644180800E-016 ) ) ;
#323 = CARTESIAN_POINT ( 'NONE',  ( 0.0000000000000000000, 0.5000000000000000000, 0.1245854969778802900 ) ) ;
#324 = ADVANCED_BREP_SHAPE_REPRESENTATION ( '20176-E0W', ( #104, #305 ), #105 ) ;
#325 = ADVANCED_FACE ( 'NONE', ( #35 ), #1, .T. ) ;
#326 = DIRECTION ( 'NONE',  ( -0.0000000000000000000, -1.836909530733566100E-016, 1.000000000000000000 ) ) ;
#327 = DIRECTION ( 'NONE',  ( 0.0000000000000000000, -1.000000000000000000, -1.726631975225924800E-016 ) ) ;
#328 = CONICAL_SURFACE ( 'NONE', #79, 0.5000000000000000000, 0.6857452580073562000 ) ;
#329 = CALENDAR_DATE ( 2018, 1, 6 ) ;
#330 = DIRECTION ( 'NONE',  ( 0.0000000000000000000, -1.000000000000000000, -1.878145495644180800E-016 ) ) ;
ENDSEC;
END-ISO-10303-21;
