ISO-10303-21;
HEADER;
FILE_DESCRIPTION (( 'STEP AP203' ),
    '1' );
FILE_NAME ('Web Model 34241_17663.step',
    '2021-06-28T18:32:31',
    ( '' ),
    ( '' ),
    'SwSTEP 2.0',
    'SolidWorks 2018',
    '' );
FILE_SCHEMA (( 'CONFIG_CONTROL_DESIGN' ));
ENDSEC;

DATA;
#1 = PERSON_AND_ORGANIZATION ( #8, #155 ) ;
#2 = ORIENTED_EDGE ( 'NONE', *, *, #171, .F. ) ;
#3 =( NAMED_UNIT ( * ) PLANE_ANGLE_UNIT ( ) SI_UNIT ( $, .RADIAN. ) );
#4 = CALENDAR_DATE ( 2021, 28, 6 ) ;
#5 = EDGE_CURVE ( 'NONE', #98, #158, #25, .T. ) ;
#6 = PERSON_AND_ORGANIZATION ( #8, #155 ) ;
#7 = APPROVAL_STATUS ( 'not_yet_approved' ) ;
#8 = PERSON ( 'UNSPECIFIED', 'UNSPECIFIED', 'UNSPECIFIED', ('UNSPECIFIED'), ('UNSPECIFIED'), ('UNSPECIFIED') ) ;
#9 = APPLICATION_PROTOCOL_DEFINITION ( 'international standard', 'config_control_design', 1994, #105 ) ;
#10 = DATE_AND_TIME ( #122, #174 ) ;
#11 = AXIS2_PLACEMENT_3D ( 'NONE', #156, #70, #154 ) ;
#12 = CARTESIAN_POINT ( 'NONE',  ( 6.250000000000002665, -12.50000000000000000, -3.163628771076594681 ) ) ;
#13 = PRODUCT_DEFINITION_FORMATION_WITH_SPECIFIED_SOURCE ( 'ANY', '', #40, .NOT_KNOWN. ) ;
#14 = DIRECTION ( 'NONE',  ( 0.000000000000000000, 0.000000000000000000, 1.000000000000000000 ) ) ;
#15 = ORIENTED_EDGE ( 'NONE', *, *, #20, .T. ) ;
#16 = CC_DESIGN_SECURITY_CLASSIFICATION ( #134, ( #13 ) ) ;
#17 = LOCAL_TIME ( 14, 32, 31.00000000000000000, #27 ) ;
#18 = PERSON_AND_ORGANIZATION ( #8, #155 ) ;
#19 = ORIENTED_EDGE ( 'NONE', *, *, #164, .F. ) ;
#20 = EDGE_CURVE ( 'NONE', #149, #158, #167, .T. ) ;
#21 = AXIS2_PLACEMENT_3D ( 'NONE', #97, #68, #117 ) ;
#22 = ORIENTED_EDGE ( 'NONE', *, *, #150, .T. ) ;
#23 = APPLICATION_CONTEXT ( 'configuration controlled 3d designs of mechanical parts and assemblies' ) ;
#24 =( BOUNDED_CURVE ( )  B_SPLINE_CURVE ( 3, ( #46, #168, #138, #44 ),
 .UNSPECIFIED., .F., .F. ) 
 B_SPLINE_CURVE_WITH_KNOTS ( ( 4, 4 ),
 ( 4.712388980384689674, 7.853981633974482790 ),
 .UNSPECIFIED. ) 
 CURVE ( )  GEOMETRIC_REPRESENTATION_ITEM ( )  RATIONAL_B_SPLINE_CURVE ( ( 1.000000000000000000, 0.3333333333333333703, 0.3333333333333333703, 1.000000000000000000 ) ) 
 REPRESENTATION_ITEM ( '' )  );
#25 = CIRCLE ( 'NONE', #34, 6.250000000000000000 ) ;
#26 = APPROVAL_ROLE ( '' ) ;
#27 = COORDINATED_UNIVERSAL_TIME_OFFSET ( 5, 0, .BEHIND. ) ;
#28 = CARTESIAN_POINT ( 'NONE',  ( -6.250000000000000000, 7.654042494670957606E-16, -3.054542923692198375 ) ) ;
#29 = AXIS2_PLACEMENT_3D ( 'NONE', #166, #94, #54 ) ;
#30 = LINE ( 'NONE', #131, #75 ) ;
#31 = DIRECTION ( 'NONE',  ( 1.000000000000000000, 0.000000000000000000, 0.000000000000000000 ) ) ;
#32 = FACE_OUTER_BOUND ( 'NONE', #76, .T. ) ;
#33 = ORIENTED_EDGE ( 'NONE', *, *, #81, .T. ) ;
#34 = AXIS2_PLACEMENT_3D ( 'NONE', #108, #14, #31 ) ;
#35 = FACE_OUTER_BOUND ( 'NONE', #120, .T. ) ;
#36 = APPROVAL_PERSON_ORGANIZATION ( #151, #128, #79 ) ;
#37 = CC_DESIGN_APPROVAL ( #47, ( #134 ) ) ;
#38 = CC_DESIGN_APPROVAL ( #82, ( #13 ) ) ;
#39 = CALENDAR_DATE ( 2021, 28, 6 ) ;
#40 = PRODUCT ( 'Web Model 34241_17663', 'Web Model 34241_17663', '', ( #57 ) ) ;
#41 = DIRECTION ( 'NONE',  ( -0.000000000000000000, -0.000000000000000000, 1.000000000000000000 ) ) ;
#42 = ORIENTED_EDGE ( 'NONE', *, *, #171, .T. ) ;
#43 = CALENDAR_DATE ( 2021, 28, 6 ) ;
#44 = CARTESIAN_POINT ( 'NONE',  ( 6.250000000000000000, 0.000000000000000000, -3.054542923692198375 ) ) ;
#45 = APPROVAL_STATUS ( 'not_yet_approved' ) ;
#46 = CARTESIAN_POINT ( 'NONE',  ( -6.250000000000000000, 7.654042494670957606E-16, -3.054542923692198375 ) ) ;
#47 = APPROVAL ( #45, 'UNSPECIFIED' ) ;
#48 = FACE_OUTER_BOUND ( 'NONE', #86, .T. ) ;
#49 = DIRECTION ( 'NONE',  ( 1.000000000000000000, 0.000000000000000000, 0.000000000000000000 ) ) ;
#50 = CARTESIAN_POINT ( 'NONE',  ( -6.250000000000000000, 7.654042494670957606E-16, 0.000000000000000000 ) ) ;
#51 = CC_DESIGN_PERSON_AND_ORGANIZATION_ASSIGNMENT ( #18, #95, ( #40 ) ) ;
#52 = ORIENTED_EDGE ( 'NONE', *, *, #5, .F. ) ;
#53 =( LENGTH_UNIT ( ) NAMED_UNIT ( * ) SI_UNIT ( .MILLI., .METRE. ) );
#54 = DIRECTION ( 'NONE',  ( 1.000000000000000000, 0.000000000000000000, -0.000000000000000000 ) ) ;
#55 = DATE_TIME_ROLE ( 'classification_date' ) ;
#56 = DATE_TIME_ROLE ( 'creation_date' ) ;
#57 = MECHANICAL_CONTEXT ( 'NONE', #23, 'mechanical' ) ;
#58 = VERTEX_POINT ( 'NONE', #124 ) ;
#59 = CARTESIAN_POINT ( 'NONE',  ( -6.250000000000000000, 7.654042494670957606E-16, -3.054542923692198375 ) ) ;
#60 = FACE_OUTER_BOUND ( 'NONE', #115, .T. ) ;
#61 = CIRCLE ( 'NONE', #21, 6.250000000000000000 ) ;
#62 = LOCAL_TIME ( 14, 32, 31.00000000000000000, #129 ) ;
#63 = CLOSED_SHELL ( 'NONE', ( #72, #162, #113, #125 ) ) ;
#64 = CC_DESIGN_APPROVAL ( #128, ( #67 ) ) ;
#65 = COORDINATED_UNIVERSAL_TIME_OFFSET ( 5, 0, .BEHIND. ) ;
#66 = APPLICATION_PROTOCOL_DEFINITION ( 'international standard', 'config_control_design', 1994, #23 ) ;
#67 = PRODUCT_DEFINITION ( 'UNKNOWN', '', #13, #77 ) ;
#68 = DIRECTION ( 'NONE',  ( 0.000000000000000000, 0.000000000000000000, 1.000000000000000000 ) ) ;
#69 = DATE_AND_TIME ( #43, #92 ) ;
#70 = DIRECTION ( 'NONE',  ( 0.000000000000000000, 0.000000000000000000, 1.000000000000000000 ) ) ;
#71 = CARTESIAN_POINT ( 'NONE',  ( 0.000000000000000000, 0.000000000000000000, -3.109085847384396306 ) ) ;
#72 = ADVANCED_FACE ( 'NONE', ( #60 ), #90, .T. ) ;
#73 = DIRECTION ( 'NONE',  ( 0.000000000000000000, 0.9999619230641713097, 0.008726535498366846597 ) ) ;
#74 = ORIENTED_EDGE ( 'NONE', *, *, #20, .F. ) ;
#75 = VECTOR ( 'NONE', #41, 1000.000000000000000 ) ;
#76 = EDGE_LOOP ( 'NONE', ( #33, #146 ) ) ;
#77 = DESIGN_CONTEXT ( 'detailed design', #105, 'design' ) ;
#78 = COORDINATED_UNIVERSAL_TIME_OFFSET ( 5, 0, .BEHIND. ) ;
#79 = APPROVAL_ROLE ( '' ) ;
#80 = ORIENTED_EDGE ( 'NONE', *, *, #81, .F. ) ;
#81 = EDGE_CURVE ( 'NONE', #58, #149, #143, .T. ) ;
#82 = APPROVAL ( #121, 'UNSPECIFIED' ) ;
#83 = CARTESIAN_POINT ( 'NONE',  ( -6.250000000000000000, 7.654042494670957606E-16, -3.109085847384396306 ) ) ;
#84 = ADVANCED_BREP_SHAPE_REPRESENTATION ( 'Web Model 34241_17663', ( #111, #11 ), #87 ) ;
#85 = CARTESIAN_POINT ( 'NONE',  ( 6.250000000000000000, 0.000000000000000000, -3.054542923692198375 ) ) ;
#86 = EDGE_LOOP ( 'NONE', ( #74, #80, #42, #88 ) ) ;
#87 =( GEOMETRIC_REPRESENTATION_CONTEXT ( 3 ) GLOBAL_UNCERTAINTY_ASSIGNED_CONTEXT ( ( #123 ) ) GLOBAL_UNIT_ASSIGNED_CONTEXT ( ( #53, #3, #96 ) ) REPRESENTATION_CONTEXT ( 'NONE', 'WORKASPACE' ) );
#88 = ORIENTED_EDGE ( 'NONE', *, *, #150, .F. ) ;
#89 = PERSON_AND_ORGANIZATION ( #8, #155 ) ;
#90 = CYLINDRICAL_SURFACE ( 'NONE', #112, 6.250000000000000000 ) ;
#91 = CYLINDRICAL_SURFACE ( 'NONE', #159, 6.250000000000000000 ) ;
#92 = LOCAL_TIME ( 14, 32, 31.00000000000000000, #65 ) ;
#93 = CC_DESIGN_DATE_AND_TIME_ASSIGNMENT ( #144, #56, ( #67 ) ) ;
#94 = DIRECTION ( 'NONE',  ( 0.000000000000000000, 0.000000000000000000, 1.000000000000000000 ) ) ;
#95 = PERSON_AND_ORGANIZATION_ROLE ( 'design_owner' ) ;
#96 =( NAMED_UNIT ( * ) SI_UNIT ( $, .STERADIAN. ) SOLID_ANGLE_UNIT ( ) );
#97 = CARTESIAN_POINT ( 'NONE',  ( 0.000000000000000000, 0.000000000000000000, 0.000000000000000000 ) ) ;
#98 = VERTEX_POINT ( 'NONE', #161 ) ;
#99 = DIRECTION ( 'NONE',  ( -0.000000000000000000, -0.000000000000000000, 1.000000000000000000 ) ) ;
#100 = PRODUCT_DEFINITION_SHAPE ( 'NONE', 'NONE',  #67 ) ;
#101 = PLANE ( 'NONE',  #118 ) ;
#102 = CC_DESIGN_PERSON_AND_ORGANIZATION_ASSIGNMENT ( #6, #140, ( #134 ) ) ;
#103 = PERSON_AND_ORGANIZATION_ROLE ( 'creator' ) ;
#104 = PERSON_AND_ORGANIZATION ( #8, #155 ) ;
#105 = APPLICATION_CONTEXT ( 'configuration controlled 3d designs of mechanical parts and assemblies' ) ;
#106 = SECURITY_CLASSIFICATION_LEVEL ( 'unclassified' ) ;
#107 = CC_DESIGN_PERSON_AND_ORGANIZATION_ASSIGNMENT ( #104, #152, ( #13 ) ) ;
#108 = CARTESIAN_POINT ( 'NONE',  ( 0.000000000000000000, 0.000000000000000000, 0.000000000000000000 ) ) ;
#109 = PRODUCT_RELATED_PRODUCT_CATEGORY ( 'detail', '', ( #40 ) ) ;
#110 = APPROVAL_PERSON_ORGANIZATION ( #114, #82, #26 ) ;
#111 = MANIFOLD_SOLID_BREP ( 'Cut-Extrude1', #63 ) ;
#112 = AXIS2_PLACEMENT_3D ( 'NONE', #71, #157, #170 ) ;
#113 = ADVANCED_FACE ( 'NONE', ( #48 ), #91, .T. ) ;
#114 = PERSON_AND_ORGANIZATION ( #8, #155 ) ;
#115 = EDGE_LOOP ( 'NONE', ( #19, #15, #52, #2 ) ) ;
#116 = DATE_AND_TIME ( #39, #62 ) ;
#117 = DIRECTION ( 'NONE',  ( 1.000000000000000000, 0.000000000000000000, 0.000000000000000000 ) ) ;
#118 = AXIS2_PLACEMENT_3D ( 'NONE', #173, #127, #73 ) ;
#119 = APPROVAL_DATE_TIME ( #126, #82 ) ;
#120 = EDGE_LOOP ( 'NONE', ( #133, #22 ) ) ;
#121 = APPROVAL_STATUS ( 'not_yet_approved' ) ;
#122 = CALENDAR_DATE ( 2021, 28, 6 ) ;
#123 = UNCERTAINTY_MEASURE_WITH_UNIT (LENGTH_MEASURE( 1.000000000000000082E-05 ), #53, 'distance_accuracy_value', 'NONE');
#124 = CARTESIAN_POINT ( 'NONE',  ( 6.250000000000000000, 0.000000000000000000, -3.054542923692198375 ) ) ;
#125 = ADVANCED_FACE ( 'NONE', ( #32 ), #101, .T. ) ;
#126 = DATE_AND_TIME ( #165, #172 ) ;
#127 = DIRECTION ( 'NONE',  ( 0.000000000000000000, 0.008726535498366848331, -0.9999619230641714207 ) ) ;
#128 = APPROVAL ( #7, 'UNSPECIFIED' ) ;
#129 = COORDINATED_UNIVERSAL_TIME_OFFSET ( 5, 0, .BEHIND. ) ;
#130 = PERSON_AND_ORGANIZATION_ROLE ( 'design_supplier' ) ;
#131 = CARTESIAN_POINT ( 'NONE',  ( 6.250000000000000000, 0.000000000000000000, -3.109085847384396306 ) ) ;
#132 = SHAPE_DEFINITION_REPRESENTATION ( #100, #84 ) ;
#133 = ORIENTED_EDGE ( 'NONE', *, *, #5, .T. ) ;
#134 = SECURITY_CLASSIFICATION ( '', '', #106 ) ;
#135 = CARTESIAN_POINT ( 'NONE',  ( -6.250000000000000000, -12.50000000000000533, -3.163628771076594681 ) ) ;
#136 = COORDINATED_UNIVERSAL_TIME_OFFSET ( 5, 0, .BEHIND. ) ;
#137 = CC_DESIGN_PERSON_AND_ORGANIZATION_ASSIGNMENT ( #89, #130, ( #13 ) ) ;
#138 = CARTESIAN_POINT ( 'NONE',  ( 6.250000000000002665, 12.50000000000000000, -2.945457076307802069 ) ) ;
#139 = APPROVAL_DATE_TIME ( #69, #128 ) ;
#140 = PERSON_AND_ORGANIZATION_ROLE ( 'classification_officer' ) ;
#141 = APPROVAL_DATE_TIME ( #10, #47 ) ;
#142 = APPROVAL_PERSON_ORGANIZATION ( #1, #47, #169 ) ;
#143 =( BOUNDED_CURVE ( )  B_SPLINE_CURVE ( 3, ( #85, #12, #135, #59 ),
 .UNSPECIFIED., .F., .F. ) 
 B_SPLINE_CURVE_WITH_KNOTS ( ( 4, 4 ),
 ( 1.570796326794896558, 4.712388980384689674 ),
 .UNSPECIFIED. ) 
 CURVE ( )  GEOMETRIC_REPRESENTATION_ITEM ( )  RATIONAL_B_SPLINE_CURVE ( ( 1.000000000000000000, 0.3333333333333333703, 0.3333333333333333703, 1.000000000000000000 ) ) 
 REPRESENTATION_ITEM ( '' )  );
#144 = DATE_AND_TIME ( #4, #17 ) ;
#145 = VECTOR ( 'NONE', #99, 1000.000000000000000 ) ;
#146 = ORIENTED_EDGE ( 'NONE', *, *, #164, .T. ) ;
#147 = CC_DESIGN_DATE_AND_TIME_ASSIGNMENT ( #116, #55, ( #134 ) ) ;
#148 = CARTESIAN_POINT ( 'NONE',  ( 0.000000000000000000, 0.000000000000000000, -3.109085847384396306 ) ) ;
#149 = VERTEX_POINT ( 'NONE', #28 ) ;
#150 = EDGE_CURVE ( 'NONE', #158, #98, #61, .T. ) ;
#151 = PERSON_AND_ORGANIZATION ( #8, #155 ) ;
#152 = PERSON_AND_ORGANIZATION_ROLE ( 'creator' ) ;
#153 = PLANE ( 'NONE',  #29 ) ;
#154 = DIRECTION ( 'NONE',  ( 1.000000000000000000, 0.000000000000000000, 0.000000000000000000 ) ) ;
#155 = ORGANIZATION ( 'UNSPECIFIED', 'UNSPECIFIED', '' ) ;
#156 = CARTESIAN_POINT ( 'NONE',  ( 0.000000000000000000, 0.000000000000000000, 0.000000000000000000 ) ) ;
#157 = DIRECTION ( 'NONE',  ( -0.000000000000000000, -0.000000000000000000, 1.000000000000000000 ) ) ;
#158 = VERTEX_POINT ( 'NONE', #50 ) ;
#159 = AXIS2_PLACEMENT_3D ( 'NONE', #148, #163, #49 ) ;
#160 = PERSON_AND_ORGANIZATION ( #8, #155 ) ;
#161 = CARTESIAN_POINT ( 'NONE',  ( 6.250000000000000000, 0.000000000000000000, 0.000000000000000000 ) ) ;
#162 = ADVANCED_FACE ( 'NONE', ( #35 ), #153, .T. ) ;
#163 = DIRECTION ( 'NONE',  ( -0.000000000000000000, -0.000000000000000000, 1.000000000000000000 ) ) ;
#164 = EDGE_CURVE ( 'NONE', #149, #58, #24, .T. ) ;
#165 = CALENDAR_DATE ( 2021, 28, 6 ) ;
#166 = CARTESIAN_POINT ( 'NONE',  ( 6.250000000000000000, -6.249999999999997335, 0.000000000000000000 ) ) ;
#167 = LINE ( 'NONE', #83, #145 ) ;
#168 = CARTESIAN_POINT ( 'NONE',  ( -6.250000000000005329, 12.50000000000000000, -2.945457076307802069 ) ) ;
#169 = APPROVAL_ROLE ( '' ) ;
#170 = DIRECTION ( 'NONE',  ( 1.000000000000000000, 0.000000000000000000, 0.000000000000000000 ) ) ;
#171 = EDGE_CURVE ( 'NONE', #58, #98, #30, .T. ) ;
#172 = LOCAL_TIME ( 14, 32, 31.00000000000000000, #136 ) ;
#173 = CARTESIAN_POINT ( 'NONE',  ( 6.250000000000000000, 6.250000000000000000, -3.000000000000000000 ) ) ;
#174 = LOCAL_TIME ( 14, 32, 31.00000000000000000, #78 ) ;
#175 = CC_DESIGN_PERSON_AND_ORGANIZATION_ASSIGNMENT ( #160, #103, ( #67 ) ) ;
ENDSEC;
END-ISO-10303-21;
