ISO-10303-21;
HEADER;
FILE_DESCRIPTION (( 'STEP AP203' ),
    '1' );
FILE_NAME ('Web Model 48201_39300.step',
    '2019-01-07T15:22:38',
    ( '' ),
    ( '' ),
    'SwSTEP 2.0',
    'SolidWorks 2016',
    '' );
FILE_SCHEMA (( 'CONFIG_CONTROL_DESIGN' ));
ENDSEC;

DATA;
#1 = CC_DESIGN_PERSON_AND_ORGANIZATION_ASSIGNMENT ( #73, #188, ( #10 ) ) ;
#2 = PERSON_AND_ORGANIZATION ( #129, #39 ) ;
#3 = LINE ( 'NONE', #224, #177 ) ;
#4 = ORIENTED_EDGE ( 'NONE', *, *, #37, .T. ) ;
#5 = CARTESIAN_POINT ( 'NONE',  ( -12.50000000000000000, -12.50000000000000000, 1.000000000000000000 ) ) ;
#6 = CARTESIAN_POINT ( 'NONE',  ( 12.50000000000000000, -12.50000000000000000, 1.000000000000000000 ) ) ;
#7 = CARTESIAN_POINT ( 'NONE',  ( 12.50000000000000000, 12.50000000000000000, 1.000000000000000000 ) ) ;
#8 = CALENDAR_DATE ( 2019, 7, 1 ) ;
#9 = DIRECTION ( 'NONE',  ( -0.0000000000000000000, -0.0000000000000000000, -1.000000000000000000 ) ) ;
#10 = SECURITY_CLASSIFICATION ( '', '', #152 ) ;
#11 = CARTESIAN_POINT ( 'NONE',  ( -12.50000000000000000, -12.50000000000000000, 1.000000000000000000 ) ) ;
#12 = DIRECTION ( 'NONE',  ( 0.0000000000000000000, 0.0000000000000000000, 1.000000000000000000 ) ) ;
#13 = EDGE_CURVE ( 'NONE', #21, #77, #154, .T. ) ;
#14 =( LENGTH_UNIT ( ) NAMED_UNIT ( * ) SI_UNIT ( .MILLI., .METRE. ) );
#15 = ADVANCED_FACE ( 'NONE', ( #82 ), #57, .F. ) ;
#16 = PERSON_AND_ORGANIZATION ( #129, #39 ) ;
#17 = AXIS2_PLACEMENT_3D ( 'NONE', #96, #76, #222 ) ;
#18 = VERTEX_POINT ( 'NONE', #179 ) ;
#19 = DIRECTION ( 'NONE',  ( 0.0000000000000000000, -0.0000000000000000000, -1.000000000000000000 ) ) ;
#20 = ORIENTED_EDGE ( 'NONE', *, *, #137, .F. ) ;
#21 = VERTEX_POINT ( 'NONE', #38 ) ;
#22 = APPROVAL ( #31, 'UNSPECIFIED' ) ;
#23 = VECTOR ( 'NONE', #118, 1000.000000000000000 ) ;
#24 = CARTESIAN_POINT ( 'NONE',  ( 12.50000000000000000, 12.50000000000000000, -1.000000000000000000 ) ) ;
#25 = PLANE ( 'NONE',  #107 ) ;
#26 = VECTOR ( 'NONE', #234, 1000.000000000000000 ) ;
#27 = APPROVAL_DATE_TIME ( #30, #117 ) ;
#28 = CC_DESIGN_PERSON_AND_ORGANIZATION_ASSIGNMENT ( #47, #67, ( #192 ) ) ;
#29 = DIRECTION ( 'NONE',  ( -0.0000000000000000000, -1.000000000000000000, -0.0000000000000000000 ) ) ;
#30 = DATE_AND_TIME ( #220, #60 ) ;
#31 = APPROVAL_STATUS ( 'not_yet_approved' ) ;
#32 = ORIENTED_EDGE ( 'NONE', *, *, #153, .F. ) ;
#33 = PERSON_AND_ORGANIZATION ( #129, #39 ) ;
#34 = CARTESIAN_POINT ( 'NONE',  ( -12.50000000000000000, -12.50000000000000000, 1.000000000000000000 ) ) ;
#35 = ORIENTED_EDGE ( 'NONE', *, *, #186, .T. ) ;
#36 = CC_DESIGN_APPROVAL ( #22, ( #10 ) ) ;
#37 = EDGE_CURVE ( 'NONE', #131, #236, #127, .T. ) ;
#38 = CARTESIAN_POINT ( 'NONE',  ( 12.50000000000000000, -12.50000000000000000, 1.000000000000000000 ) ) ;
#39 = ORGANIZATION ( 'UNSPECIFIED', 'UNSPECIFIED', '' ) ;
#40 = UNCERTAINTY_MEASURE_WITH_UNIT (LENGTH_MEASURE( 1.000000000000000100E-005 ), #14, 'distance_accuracy_value', 'NONE');
#41 = PRODUCT_RELATED_PRODUCT_CATEGORY ( 'detail', '', ( #193 ) ) ;
#42 = DIRECTION ( 'NONE',  ( 0.0000000000000000000, 0.0000000000000000000, 1.000000000000000000 ) ) ;
#43 = EDGE_LOOP ( 'NONE', ( #95, #173, #32, #139 ) ) ;
#44 = COORDINATED_UNIVERSAL_TIME_OFFSET ( 5, 0, .BEHIND. ) ;
#45 = ORIENTED_EDGE ( 'NONE', *, *, #158, .F. ) ;
#46 = CLOSED_SHELL ( 'NONE', ( #103, #15, #90, #143, #70, #141 ) ) ;
#47 = PERSON_AND_ORGANIZATION ( #129, #39 ) ;
#48 = APPLICATION_CONTEXT ( 'configuration controlled 3d designs of mechanical parts and assemblies' ) ;
#49 = CC_DESIGN_PERSON_AND_ORGANIZATION_ASSIGNMENT ( #217, #210, ( #219 ) ) ;
#50 = CARTESIAN_POINT ( 'NONE',  ( 0.0000000000000000000, 0.0000000000000000000, 0.0000000000000000000 ) ) ;
#51 = APPROVAL_ROLE ( '' ) ;
#52 = APPROVAL_STATUS ( 'not_yet_approved' ) ;
#53 =( GEOMETRIC_REPRESENTATION_CONTEXT ( 3 ) GLOBAL_UNCERTAINTY_ASSIGNED_CONTEXT ( ( #40 ) ) GLOBAL_UNIT_ASSIGNED_CONTEXT ( ( #14, #100, #225 ) ) REPRESENTATION_CONTEXT ( 'NONE', 'WORKASPACE' ) );
#54 = VECTOR ( 'NONE', #149, 1000.000000000000000 ) ;
#55 = CARTESIAN_POINT ( 'NONE',  ( 12.50000000000000000, -12.50000000000000000, -1.000000000000000000 ) ) ;
#56 = DIRECTION ( 'NONE',  ( -0.0000000000000000000, -0.0000000000000000000, -1.000000000000000000 ) ) ;
#57 = PLANE ( 'NONE',  #59 ) ;
#58 = CARTESIAN_POINT ( 'NONE',  ( -12.50000000000000000, 12.50000000000000000, 1.000000000000000000 ) ) ;
#59 = AXIS2_PLACEMENT_3D ( 'NONE', #178, #74, #19 ) ;
#60 = LOCAL_TIME ( 10, 22, 38.00000000000000000, #145 ) ;
#61 = CC_DESIGN_SECURITY_CLASSIFICATION ( #10, ( #192 ) ) ;
#62 = EDGE_CURVE ( 'NONE', #102, #77, #233, .T. ) ;
#63 = SHAPE_DEFINITION_REPRESENTATION ( #170, #172 ) ;
#64 = AXIS2_PLACEMENT_3D ( 'NONE', #50, #12, #81 ) ;
#65 = PERSON_AND_ORGANIZATION_ROLE ( 'design_owner' ) ;
#66 = APPLICATION_PROTOCOL_DEFINITION ( 'international standard', 'config_control_design', 1994, #48 ) ;
#67 = PERSON_AND_ORGANIZATION_ROLE ( 'design_supplier' ) ;
#68 = FACE_OUTER_BOUND ( 'NONE', #207, .T. ) ;
#69 = LINE ( 'NONE', #7, #23 ) ;
#70 = ADVANCED_FACE ( 'NONE', ( #228 ), #216, .F. ) ;
#71 = ORIENTED_EDGE ( 'NONE', *, *, #164, .T. ) ;
#72 = CC_DESIGN_APPROVAL ( #117, ( #219 ) ) ;
#73 = PERSON_AND_ORGANIZATION ( #129, #39 ) ;
#74 = DIRECTION ( 'NONE',  ( 0.0000000000000000000, -1.000000000000000000, 0.0000000000000000000 ) ) ;
#75 = VECTOR ( 'NONE', #97, 1000.000000000000000 ) ;
#76 = DIRECTION ( 'NONE',  ( 0.0000000000000000000, 0.0000000000000000000, -1.000000000000000000 ) ) ;
#77 = VERTEX_POINT ( 'NONE', #55 ) ;
#78 = DIRECTION ( 'NONE',  ( 0.0000000000000000000, 1.000000000000000000, 0.0000000000000000000 ) ) ;
#79 = APPROVAL_DATE_TIME ( #135, #22 ) ;
#80 = LOCAL_TIME ( 10, 22, 38.00000000000000000, #157 ) ;
#81 = DIRECTION ( 'NONE',  ( 1.000000000000000000, 0.0000000000000000000, 0.0000000000000000000 ) ) ;
#82 = FACE_OUTER_BOUND ( 'NONE', #175, .T. ) ;
#83 = APPROVAL_ROLE ( '' ) ;
#84 = CC_DESIGN_PERSON_AND_ORGANIZATION_ASSIGNMENT ( #93, #206, ( #192 ) ) ;
#85 = DATE_TIME_ROLE ( 'classification_date' ) ;
#86 = ORIENTED_EDGE ( 'NONE', *, *, #196, .F. ) ;
#87 = LOCAL_TIME ( 10, 22, 38.00000000000000000, #191 ) ;
#88 = ORIENTED_EDGE ( 'NONE', *, *, #62, .F. ) ;
#89 = CC_DESIGN_DATE_AND_TIME_ASSIGNMENT ( #148, #85, ( #10 ) ) ;
#90 = ADVANCED_FACE ( 'NONE', ( #198 ), #123, .F. ) ;
#91 = ORIENTED_EDGE ( 'NONE', *, *, #13, .F. ) ;
#92 = VECTOR ( 'NONE', #56, 1000.000000000000000 ) ;
#93 = PERSON_AND_ORGANIZATION ( #129, #39 ) ;
#94 = CC_DESIGN_PERSON_AND_ORGANIZATION_ASSIGNMENT ( #33, #65, ( #193 ) ) ;
#95 = ORIENTED_EDGE ( 'NONE', *, *, #137, .T. ) ;
#96 = CARTESIAN_POINT ( 'NONE',  ( 0.0000000000000000000, 0.0000000000000000000, -1.000000000000000000 ) ) ;
#97 = DIRECTION ( 'NONE',  ( -0.0000000000000000000, -1.000000000000000000, -0.0000000000000000000 ) ) ;
#98 = CARTESIAN_POINT ( 'NONE',  ( -12.50000000000000000, -12.50000000000000000, 1.000000000000000000 ) ) ;
#99 = LINE ( 'NONE', #111, #75 ) ;
#100 =( NAMED_UNIT ( * ) PLANE_ANGLE_UNIT ( ) SI_UNIT ( $, .RADIAN. ) );
#101 = DIRECTION ( 'NONE',  ( 1.000000000000000000, 0.0000000000000000000, 0.0000000000000000000 ) ) ;
#102 = VERTEX_POINT ( 'NONE', #199 ) ;
#103 = ADVANCED_FACE ( 'NONE', ( #109 ), #197, .F. ) ;
#104 = ORIENTED_EDGE ( 'NONE', *, *, #158, .T. ) ;
#105 = DIRECTION ( 'NONE',  ( 1.000000000000000000, 0.0000000000000000000, 0.0000000000000000000 ) ) ;
#106 = CARTESIAN_POINT ( 'NONE',  ( 12.50000000000000000, -12.50000000000000000, 1.000000000000000000 ) ) ;
#107 = AXIS2_PLACEMENT_3D ( 'NONE', #5, #78, #202 ) ;
#108 = EDGE_LOOP ( 'NONE', ( #20, #88, #195, #45 ) ) ;
#109 = FACE_OUTER_BOUND ( 'NONE', #43, .T. ) ;
#110 = AXIS2_PLACEMENT_3D ( 'NONE', #212, #155, #176 ) ;
#111 = CARTESIAN_POINT ( 'NONE',  ( -12.50000000000000000, -12.50000000000000000, -1.000000000000000000 ) ) ;
#112 = CALENDAR_DATE ( 2019, 7, 1 ) ;
#113 = LINE ( 'NONE', #6, #150 ) ;
#114 = DATE_TIME_ROLE ( 'creation_date' ) ;
#115 = CARTESIAN_POINT ( 'NONE',  ( -12.50000000000000000, 12.50000000000000000, 1.000000000000000000 ) ) ;
#116 = DATE_AND_TIME ( #130, #87 ) ;
#117 = APPROVAL ( #52, 'UNSPECIFIED' ) ;
#118 = DIRECTION ( 'NONE',  ( -0.0000000000000000000, -0.0000000000000000000, -1.000000000000000000 ) ) ;
#119 = CARTESIAN_POINT ( 'NONE',  ( -12.50000000000000000, -12.50000000000000000, 1.000000000000000000 ) ) ;
#120 = APPROVAL_PERSON_ORGANIZATION ( #2, #22, #51 ) ;
#121 = MANIFOLD_SOLID_BREP ( 'Boss-Extrude1', #46 ) ;
#122 = VECTOR ( 'NONE', #101, 1000.000000000000000 ) ;
#123 = PLANE ( 'NONE',  #183 ) ;
#124 = CC_DESIGN_DATE_AND_TIME_ASSIGNMENT ( #211, #114, ( #219 ) ) ;
#125 = VERTEX_POINT ( 'NONE', #161 ) ;
#126 = LINE ( 'NONE', #11, #122 ) ;
#127 = LINE ( 'NONE', #58, #26 ) ;
#128 = ORIENTED_EDGE ( 'NONE', *, *, #153, .T. ) ;
#129 = PERSON ( 'UNSPECIFIED', 'UNSPECIFIED', 'UNSPECIFIED', ('UNSPECIFIED'), ('UNSPECIFIED'), ('UNSPECIFIED') ) ;
#130 = CALENDAR_DATE ( 2019, 7, 1 ) ;
#131 = VERTEX_POINT ( 'NONE', #133 ) ;
#132 = LINE ( 'NONE', #115, #223 ) ;
#133 = CARTESIAN_POINT ( 'NONE',  ( 12.50000000000000000, 12.50000000000000000, 1.000000000000000000 ) ) ;
#134 = APPROVAL ( #138, 'UNSPECIFIED' ) ;
#135 = DATE_AND_TIME ( #112, #227 ) ;
#136 = DIRECTION ( 'NONE',  ( -0.0000000000000000000, -0.0000000000000000000, -1.000000000000000000 ) ) ;
#137 = EDGE_CURVE ( 'NONE', #77, #140, #203, .T. ) ;
#138 = APPROVAL_STATUS ( 'not_yet_approved' ) ;
#139 = ORIENTED_EDGE ( 'NONE', *, *, #13, .T. ) ;
#140 = VERTEX_POINT ( 'NONE', #24 ) ;
#141 = ADVANCED_FACE ( 'NONE', ( #168 ), #201, .T. ) ;
#142 = APPROVAL_DATE_TIME ( #116, #134 ) ;
#143 = ADVANCED_FACE ( 'NONE', ( #68 ), #25, .F. ) ;
#144 = ORIENTED_EDGE ( 'NONE', *, *, #186, .F. ) ;
#145 = COORDINATED_UNIVERSAL_TIME_OFFSET ( 5, 0, .BEHIND. ) ;
#146 = DIRECTION ( 'NONE',  ( -1.000000000000000000, 0.0000000000000000000, 0.0000000000000000000 ) ) ;
#147 = EDGE_CURVE ( 'NONE', #125, #102, #99, .T. ) ;
#148 = DATE_AND_TIME ( #180, #80 ) ;
#149 = DIRECTION ( 'NONE',  ( 0.0000000000000000000, 1.000000000000000000, 0.0000000000000000000 ) ) ;
#150 = VECTOR ( 'NONE', #204, 1000.000000000000000 ) ;
#151 = CARTESIAN_POINT ( 'NONE',  ( -12.50000000000000000, 12.50000000000000000, 1.000000000000000000 ) ) ;
#152 = SECURITY_CLASSIFICATION_LEVEL ( 'unclassified' ) ;
#153 = EDGE_CURVE ( 'NONE', #21, #131, #113, .T. ) ;
#154 = LINE ( 'NONE', #106, #92 ) ;
#155 = DIRECTION ( 'NONE',  ( 0.0000000000000000000, 0.0000000000000000000, -1.000000000000000000 ) ) ;
#156 = ORIENTED_EDGE ( 'NONE', *, *, #37, .F. ) ;
#157 = COORDINATED_UNIVERSAL_TIME_OFFSET ( 5, 0, .BEHIND. ) ;
#158 = EDGE_CURVE ( 'NONE', #140, #125, #3, .T. ) ;
#159 = CARTESIAN_POINT ( 'NONE',  ( 12.50000000000000000, -12.50000000000000000, 1.000000000000000000 ) ) ;
#160 = APPROVAL_PERSON_ORGANIZATION ( #185, #134, #83 ) ;
#161 = CARTESIAN_POINT ( 'NONE',  ( -12.50000000000000000, 12.50000000000000000, -1.000000000000000000 ) ) ;
#162 = ORIENTED_EDGE ( 'NONE', *, *, #147, .T. ) ;
#163 = LOCAL_TIME ( 10, 22, 38.00000000000000000, #215 ) ;
#164 = EDGE_CURVE ( 'NONE', #131, #140, #69, .T. ) ;
#165 = APPROVAL_PERSON_ORGANIZATION ( #16, #117, #169 ) ;
#166 = ORIENTED_EDGE ( 'NONE', *, *, #184, .F. ) ;
#167 = AXIS2_PLACEMENT_3D ( 'NONE', #159, #146, #42 ) ;
#168 = FACE_OUTER_BOUND ( 'NONE', #108, .T. ) ;
#169 = APPROVAL_ROLE ( '' ) ;
#170 = PRODUCT_DEFINITION_SHAPE ( 'NONE', 'NONE',  #219 ) ;
#171 = APPLICATION_CONTEXT ( 'configuration controlled 3d designs of mechanical parts and assemblies' ) ;
#172 = ADVANCED_BREP_SHAPE_REPRESENTATION ( 'Web Model 48201_39300', ( #121, #64 ), #53 ) ;
#173 = ORIENTED_EDGE ( 'NONE', *, *, #164, .F. ) ;
#174 = VECTOR ( 'NONE', #136, 1000.000000000000000 ) ;
#175 = EDGE_LOOP ( 'NONE', ( #104, #144, #156, #71 ) ) ;
#176 = DIRECTION ( 'NONE',  ( -1.000000000000000000, 0.0000000000000000000, -0.0000000000000000000 ) ) ;
#177 = VECTOR ( 'NONE', #208, 1000.000000000000000 ) ;
#178 = CARTESIAN_POINT ( 'NONE',  ( -12.50000000000000000, 12.50000000000000000, 1.000000000000000000 ) ) ;
#179 = CARTESIAN_POINT ( 'NONE',  ( -12.50000000000000000, -12.50000000000000000, 1.000000000000000000 ) ) ;
#180 = CALENDAR_DATE ( 2019, 7, 1 ) ;
#181 = CARTESIAN_POINT ( 'NONE',  ( 12.50000000000000000, -12.50000000000000000, -1.000000000000000000 ) ) ;
#182 = VECTOR ( 'NONE', #29, 1000.000000000000000 ) ;
#183 = AXIS2_PLACEMENT_3D ( 'NONE', #34, #105, #214 ) ;
#184 = EDGE_CURVE ( 'NONE', #18, #21, #126, .T. ) ;
#185 = PERSON_AND_ORGANIZATION ( #129, #39 ) ;
#186 = EDGE_CURVE ( 'NONE', #236, #125, #132, .T. ) ;
#187 = APPLICATION_PROTOCOL_DEFINITION ( 'international standard', 'config_control_design', 1994, #171 ) ;
#188 = PERSON_AND_ORGANIZATION_ROLE ( 'classification_officer' ) ;
#189 = ORIENTED_EDGE ( 'NONE', *, *, #213, .F. ) ;
#190 = MECHANICAL_CONTEXT ( 'NONE', #48, 'mechanical' ) ;
#191 = COORDINATED_UNIVERSAL_TIME_OFFSET ( 5, 0, .BEHIND. ) ;
#192 = PRODUCT_DEFINITION_FORMATION_WITH_SPECIFIED_SOURCE ( 'ANY', '', #193, .NOT_KNOWN. ) ;
#193 = PRODUCT ( 'Web Model 48201_39300', 'Web Model 48201_39300', '', ( #190 ) ) ;
#194 = ORIENTED_EDGE ( 'NONE', *, *, #213, .T. ) ;
#195 = ORIENTED_EDGE ( 'NONE', *, *, #147, .F. ) ;
#196 = EDGE_CURVE ( 'NONE', #18, #102, #231, .T. ) ;
#197 = PLANE ( 'NONE',  #167 ) ;
#198 = FACE_OUTER_BOUND ( 'NONE', #200, .T. ) ;
#199 = CARTESIAN_POINT ( 'NONE',  ( -12.50000000000000000, -12.50000000000000000, -1.000000000000000000 ) ) ;
#200 = EDGE_LOOP ( 'NONE', ( #162, #86, #189, #35 ) ) ;
#201 = PLANE ( 'NONE',  #17 ) ;
#202 = DIRECTION ( 'NONE',  ( 0.0000000000000000000, -0.0000000000000000000, 1.000000000000000000 ) ) ;
#203 = LINE ( 'NONE', #181, #54 ) ;
#204 = DIRECTION ( 'NONE',  ( 0.0000000000000000000, 1.000000000000000000, 0.0000000000000000000 ) ) ;
#205 = ORIENTED_EDGE ( 'NONE', *, *, #184, .T. ) ;
#206 = PERSON_AND_ORGANIZATION_ROLE ( 'creator' ) ;
#207 = EDGE_LOOP ( 'NONE', ( #218, #91, #166, #221 ) ) ;
#208 = DIRECTION ( 'NONE',  ( -1.000000000000000000, -0.0000000000000000000, -0.0000000000000000000 ) ) ;
#209 = LINE ( 'NONE', #119, #182 ) ;
#210 = PERSON_AND_ORGANIZATION_ROLE ( 'creator' ) ;
#211 = DATE_AND_TIME ( #8, #163 ) ;
#212 = CARTESIAN_POINT ( 'NONE',  ( 0.0000000000000000000, 0.0000000000000000000, 1.000000000000000000 ) ) ;
#213 = EDGE_CURVE ( 'NONE', #236, #18, #209, .T. ) ;
#214 = DIRECTION ( 'NONE',  ( 0.0000000000000000000, 0.0000000000000000000, -1.000000000000000000 ) ) ;
#215 = COORDINATED_UNIVERSAL_TIME_OFFSET ( 5, 0, .BEHIND. ) ;
#216 = PLANE ( 'NONE',  #110 ) ;
#217 = PERSON_AND_ORGANIZATION ( #129, #39 ) ;
#218 = ORIENTED_EDGE ( 'NONE', *, *, #62, .T. ) ;
#219 = PRODUCT_DEFINITION ( 'UNKNOWN', '', #192, #235 ) ;
#220 = CALENDAR_DATE ( 2019, 7, 1 ) ;
#221 = ORIENTED_EDGE ( 'NONE', *, *, #196, .T. ) ;
#222 = DIRECTION ( 'NONE',  ( -1.000000000000000000, 0.0000000000000000000, -0.0000000000000000000 ) ) ;
#223 = VECTOR ( 'NONE', #9, 1000.000000000000000 ) ;
#224 = CARTESIAN_POINT ( 'NONE',  ( -12.50000000000000000, 12.50000000000000000, -1.000000000000000000 ) ) ;
#225 =( NAMED_UNIT ( * ) SI_UNIT ( $, .STERADIAN. ) SOLID_ANGLE_UNIT ( ) );
#226 = EDGE_LOOP ( 'NONE', ( #128, #4, #194, #205 ) ) ;
#227 = LOCAL_TIME ( 10, 22, 38.00000000000000000, #44 ) ;
#228 = FACE_OUTER_BOUND ( 'NONE', #226, .T. ) ;
#229 = VECTOR ( 'NONE', #237, 1000.000000000000000 ) ;
#230 = CARTESIAN_POINT ( 'NONE',  ( -12.50000000000000000, -12.50000000000000000, -1.000000000000000000 ) ) ;
#231 = LINE ( 'NONE', #98, #174 ) ;
#232 = CC_DESIGN_APPROVAL ( #134, ( #192 ) ) ;
#233 = LINE ( 'NONE', #230, #229 ) ;
#234 = DIRECTION ( 'NONE',  ( -1.000000000000000000, -0.0000000000000000000, -0.0000000000000000000 ) ) ;
#235 = DESIGN_CONTEXT ( 'detailed design', #171, 'design' ) ;
#236 = VERTEX_POINT ( 'NONE', #151 ) ;
#237 = DIRECTION ( 'NONE',  ( 1.000000000000000000, 0.0000000000000000000, 0.0000000000000000000 ) ) ;
ENDSEC;
END-ISO-10303-21;
