ISO-10303-21;
HEADER;
FILE_DESCRIPTION (( 'STEP AP203' ),
    '1' );
FILE_NAME ('Web Model 15403_15418.step',
    '2022-03-11T18:19:30',
    ( '' ),
    ( '' ),
    'SwSTEP 2.0',
    'SolidWorks 2021',
    '' );
FILE_SCHEMA (( 'CONFIG_CONTROL_DESIGN' ));
ENDSEC;

DATA;
#1 = DIRECTION ( 'NONE',  ( 1.000000000000000000, 0.000000000000000000, 0.000000000000000000 ) ) ;
#2 = APPROVAL_ROLE ( '' ) ;
#3 = PRODUCT_RELATED_PRODUCT_CATEGORY ( 'detail', '', ( #22 ) ) ;
#4 = APPROVAL_DATE_TIME ( #46, #166 ) ;
#5 = CLOSED_SHELL ( 'NONE', ( #18, #67, #102, #137 ) ) ;
#6 = CALENDAR_DATE ( 2022, 11, 3 ) ;
#7 = AXIS2_PLACEMENT_3D ( 'NONE', #155, #33, #34 ) ;
#8 = ORIENTED_EDGE ( 'NONE', *, *, #30, .T. ) ;
#9 = ADVANCED_BREP_SHAPE_REPRESENTATION ( 'Web Model 15403_15418', ( #146, #73 ), #80 ) ;
#10 = CYLINDRICAL_SURFACE ( 'NONE', #70, 12.69999999999999929 ) ;
#11 = AXIS2_PLACEMENT_3D ( 'NONE', #79, #81, #110 ) ;
#12 = PLANE ( 'NONE',  #37 ) ;
#13 = DIRECTION ( 'NONE',  ( 1.000000000000000000, 0.000000000000000000, 0.000000000000000000 ) ) ;
#14 = APPROVAL_DATE_TIME ( #45, #99 ) ;
#15 = CC_DESIGN_DATE_AND_TIME_ASSIGNMENT ( #84, #147, ( #76 ) ) ;
#16 = PERSON_AND_ORGANIZATION ( #59, #85 ) ;
#17 = LOCAL_TIME ( 13, 19, 30.00000000000000000, #134 ) ;
#18 = ADVANCED_FACE ( 'NONE', ( #36 ), #90, .T. ) ;
#19 = CC_DESIGN_SECURITY_CLASSIFICATION ( #76, ( #103 ) ) ;
#20 = ORIENTED_EDGE ( 'NONE', *, *, #44, .F. ) ;
#21 = EDGE_LOOP ( 'NONE', ( #105, #63 ) ) ;
#22 = PRODUCT ( 'Web Model 15403_15418', 'Web Model 15403_15418', '', ( #111 ) ) ;
#23 = APPROVAL_PERSON_ORGANIZATION ( #123, #99, #2 ) ;
#24 = DIRECTION ( 'NONE',  ( -1.000000000000000000, -0.000000000000000000, -0.000000000000000000 ) ) ;
#25 = APPROVAL_DATE_TIME ( #118, #168 ) ;
#26 = CARTESIAN_POINT ( 'NONE',  ( 1.500000000000000000, 0.000000000000000000, 0.000000000000000000 ) ) ;
#27 = DIRECTION ( 'NONE',  ( 0.000000000000000000, 0.000000000000000000, 1.000000000000000000 ) ) ;
#28 = COORDINATED_UNIVERSAL_TIME_OFFSET ( 5, 0, .BEHIND. ) ;
#29 = CIRCLE ( 'NONE', #114, 12.69999999999999929 ) ;
#30 = EDGE_CURVE ( 'NONE', #106, #74, #104, .T. ) ;
#31 = CC_DESIGN_APPROVAL ( #166, ( #103 ) ) ;
#32 = DATE_TIME_ROLE ( 'creation_date' ) ;
#33 = DIRECTION ( 'NONE',  ( 1.000000000000000000, 0.000000000000000000, 0.000000000000000000 ) ) ;
#34 = DIRECTION ( 'NONE',  ( 0.000000000000000000, 0.000000000000000000, -1.000000000000000000 ) ) ;
#35 = EDGE_CURVE ( 'NONE', #74, #51, #124, .T. ) ;
#36 = FACE_OUTER_BOUND ( 'NONE', #170, .T. ) ;
#37 = AXIS2_PLACEMENT_3D ( 'NONE', #68, #13, #143 ) ;
#38 = ORIENTED_EDGE ( 'NONE', *, *, #40, .T. ) ;
#39 = CARTESIAN_POINT ( 'NONE',  ( -1.500000000000000000, 0.000000000000000000, 12.69999999999999929 ) ) ;
#40 = EDGE_CURVE ( 'NONE', #51, #74, #108, .T. ) ;
#41 = CARTESIAN_POINT ( 'NONE',  ( -1.500000000000000000, 1.555301434917138433E-15, -12.69999999999999929 ) ) ;
#42 = CARTESIAN_POINT ( 'NONE',  ( 1.500000000000000000, 0.000000000000000000, 0.000000000000000000 ) ) ;
#43 = DIRECTION ( 'NONE',  ( 1.000000000000000000, 0.000000000000000000, 0.000000000000000000 ) ) ;
#44 = EDGE_CURVE ( 'NONE', #106, #109, #55, .T. ) ;
#45 = DATE_AND_TIME ( #87, #122 ) ;
#46 = DATE_AND_TIME ( #100, #142 ) ;
#47 = PERSON_AND_ORGANIZATION ( #59, #85 ) ;
#48 = CC_DESIGN_PERSON_AND_ORGANIZATION_ASSIGNMENT ( #65, #119, ( #135 ) ) ;
#49 = ORIENTED_EDGE ( 'NONE', *, *, #44, .T. ) ;
#50 = EDGE_LOOP ( 'NONE', ( #167, #20, #8, #61 ) ) ;
#51 = VERTEX_POINT ( 'NONE', #41 ) ;
#52 =( NAMED_UNIT ( * ) PLANE_ANGLE_UNIT ( ) SI_UNIT ( $, .RADIAN. ) );
#53 = FACE_OUTER_BOUND ( 'NONE', #21, .T. ) ;
#54 =( NAMED_UNIT ( * ) SI_UNIT ( $, .STERADIAN. ) SOLID_ANGLE_UNIT ( ) );
#55 = CIRCLE ( 'NONE', #161, 12.69999999999999929 ) ;
#56 = CC_DESIGN_DATE_AND_TIME_ASSIGNMENT ( #148, #32, ( #135 ) ) ;
#57 = CARTESIAN_POINT ( 'NONE',  ( 0.000000000000000000, 0.000000000000000000, 0.000000000000000000 ) ) ;
#58 = SHAPE_DEFINITION_REPRESENTATION ( #95, #9 ) ;
#59 = PERSON ( 'UNSPECIFIED', 'UNSPECIFIED', 'UNSPECIFIED', ('UNSPECIFIED'), ('UNSPECIFIED'), ('UNSPECIFIED') ) ;
#60 = PERSON_AND_ORGANIZATION_ROLE ( 'classification_officer' ) ;
#61 = ORIENTED_EDGE ( 'NONE', *, *, #35, .T. ) ;
#62 = ORIENTED_EDGE ( 'NONE', *, *, #69, .T. ) ;
#63 = ORIENTED_EDGE ( 'NONE', *, *, #40, .F. ) ;
#64 = APPROVAL_ROLE ( '' ) ;
#65 = PERSON_AND_ORGANIZATION ( #59, #85 ) ;
#66 = DIRECTION ( 'NONE',  ( -1.000000000000000000, -0.000000000000000000, -0.000000000000000000 ) ) ;
#67 = ADVANCED_FACE ( 'NONE', ( #121 ), #10, .T. ) ;
#68 = CARTESIAN_POINT ( 'NONE',  ( 1.500000000000000000, 0.000000000000000000, 0.000000000000000000 ) ) ;
#69 = EDGE_CURVE ( 'NONE', #109, #51, #173, .T. ) ;
#70 = AXIS2_PLACEMENT_3D ( 'NONE', #93, #24, #164 ) ;
#71 = COORDINATED_UNIVERSAL_TIME_OFFSET ( 5, 0, .BEHIND. ) ;
#72 = APPROVAL_STATUS ( 'not_yet_approved' ) ;
#73 = AXIS2_PLACEMENT_3D ( 'NONE', #57, #27, #1 ) ;
#74 = VERTEX_POINT ( 'NONE', #39 ) ;
#75 = DIRECTION ( 'NONE',  ( -1.000000000000000000, -0.000000000000000000, -0.000000000000000000 ) ) ;
#76 = SECURITY_CLASSIFICATION ( '', '', #165 ) ;
#77 = APPLICATION_PROTOCOL_DEFINITION ( 'international standard', 'config_control_design', 1994, #154 ) ;
#78 = CC_DESIGN_PERSON_AND_ORGANIZATION_ASSIGNMENT ( #96, #92, ( #22 ) ) ;
#79 = CARTESIAN_POINT ( 'NONE',  ( -1.500000000000000000, 0.000000000000000000, 0.000000000000000000 ) ) ;
#80 =( GEOMETRIC_REPRESENTATION_CONTEXT ( 3 ) GLOBAL_UNCERTAINTY_ASSIGNED_CONTEXT ( ( #139 ) ) GLOBAL_UNIT_ASSIGNED_CONTEXT ( ( #174, #52, #54 ) ) REPRESENTATION_CONTEXT ( 'NONE', 'WORKASPACE' ) );
#81 = DIRECTION ( 'NONE',  ( 1.000000000000000000, 0.000000000000000000, 0.000000000000000000 ) ) ;
#82 = VECTOR ( 'NONE', #152, 1000.000000000000000 ) ;
#83 = APPROVAL_ROLE ( '' ) ;
#84 = DATE_AND_TIME ( #145, #112 ) ;
#85 = ORGANIZATION ( 'UNSPECIFIED', 'UNSPECIFIED', '' ) ;
#86 = PERSON_AND_ORGANIZATION ( #59, #85 ) ;
#87 = CALENDAR_DATE ( 2022, 11, 3 ) ;
#88 = APPROVAL_PERSON_ORGANIZATION ( #47, #166, #83 ) ;
#89 = CARTESIAN_POINT ( 'NONE',  ( -1.500000000000000000, 0.000000000000000000, 0.000000000000000000 ) ) ;
#90 = CYLINDRICAL_SURFACE ( 'NONE', #157, 12.69999999999999929 ) ;
#91 = APPLICATION_PROTOCOL_DEFINITION ( 'international standard', 'config_control_design', 1994, #132 ) ;
#92 = PERSON_AND_ORGANIZATION_ROLE ( 'design_owner' ) ;
#93 = CARTESIAN_POINT ( 'NONE',  ( 1.500000000000000000, 0.000000000000000000, 0.000000000000000000 ) ) ;
#94 = CC_DESIGN_APPROVAL ( #99, ( #76 ) ) ;
#95 = PRODUCT_DEFINITION_SHAPE ( 'NONE', 'NONE',  #135 ) ;
#96 = PERSON_AND_ORGANIZATION ( #59, #85 ) ;
#97 = APPROVAL_PERSON_ORGANIZATION ( #141, #168, #64 ) ;
#98 = PERSON_AND_ORGANIZATION ( #59, #85 ) ;
#99 = APPROVAL ( #72, 'UNSPECIFIED' ) ;
#100 = CALENDAR_DATE ( 2022, 11, 3 ) ;
#101 = COORDINATED_UNIVERSAL_TIME_OFFSET ( 5, 0, .BEHIND. ) ;
#102 = ADVANCED_FACE ( 'NONE', ( #163 ), #12, .T. ) ;
#103 = PRODUCT_DEFINITION_FORMATION_WITH_SPECIFIED_SOURCE ( 'ANY', '', #22, .NOT_KNOWN. ) ;
#104 = LINE ( 'NONE', #127, #82 ) ;
#105 = ORIENTED_EDGE ( 'NONE', *, *, #35, .F. ) ;
#106 = VERTEX_POINT ( 'NONE', #113 ) ;
#107 = CC_DESIGN_PERSON_AND_ORGANIZATION_ASSIGNMENT ( #86, #150, ( #103 ) ) ;
#108 = CIRCLE ( 'NONE', #175, 12.69999999999999929 ) ;
#109 = VERTEX_POINT ( 'NONE', #162 ) ;
#110 = DIRECTION ( 'NONE',  ( 0.000000000000000000, 0.000000000000000000, -1.000000000000000000 ) ) ;
#111 = MECHANICAL_CONTEXT ( 'NONE', #154, 'mechanical' ) ;
#112 = LOCAL_TIME ( 13, 19, 30.00000000000000000, #101 ) ;
#113 = CARTESIAN_POINT ( 'NONE',  ( 1.500000000000000000, 0.000000000000000000, 12.69999999999999929 ) ) ;
#114 = AXIS2_PLACEMENT_3D ( 'NONE', #26, #43, #120 ) ;
#115 = PERSON_AND_ORGANIZATION_ROLE ( 'creator' ) ;
#116 = ORIENTED_EDGE ( 'NONE', *, *, #30, .F. ) ;
#117 = CARTESIAN_POINT ( 'NONE',  ( 1.500000000000000000, 0.000000000000000000, 0.000000000000000000 ) ) ;
#118 = DATE_AND_TIME ( #130, #149 ) ;
#119 = PERSON_AND_ORGANIZATION_ROLE ( 'creator' ) ;
#120 = DIRECTION ( 'NONE',  ( 0.000000000000000000, 0.000000000000000000, -1.000000000000000000 ) ) ;
#121 = FACE_OUTER_BOUND ( 'NONE', #50, .T. ) ;
#122 = LOCAL_TIME ( 13, 19, 30.00000000000000000, #133 ) ;
#123 = PERSON_AND_ORGANIZATION ( #59, #85 ) ;
#124 = CIRCLE ( 'NONE', #7, 12.69999999999999929 ) ;
#125 = DIRECTION ( 'NONE',  ( 0.000000000000000000, 0.000000000000000000, -1.000000000000000000 ) ) ;
#126 = EDGE_LOOP ( 'NONE', ( #49, #156 ) ) ;
#127 = CARTESIAN_POINT ( 'NONE',  ( 1.500000000000000000, 0.000000000000000000, 12.69999999999999929 ) ) ;
#128 = CC_DESIGN_APPROVAL ( #168, ( #135 ) ) ;
#129 = DIRECTION ( 'NONE',  ( 1.000000000000000000, 0.000000000000000000, 0.000000000000000000 ) ) ;
#130 = CALENDAR_DATE ( 2022, 11, 3 ) ;
#131 = CC_DESIGN_PERSON_AND_ORGANIZATION_ASSIGNMENT ( #16, #115, ( #103 ) ) ;
#132 = APPLICATION_CONTEXT ( 'configuration controlled 3d designs of mechanical parts and assemblies' ) ;
#133 = COORDINATED_UNIVERSAL_TIME_OFFSET ( 5, 0, .BEHIND. ) ;
#134 = COORDINATED_UNIVERSAL_TIME_OFFSET ( 5, 0, .BEHIND. ) ;
#135 = PRODUCT_DEFINITION ( 'UNKNOWN', '', #103, #159 ) ;
#136 = APPROVAL_STATUS ( 'not_yet_approved' ) ;
#137 = ADVANCED_FACE ( 'NONE', ( #53 ), #172, .F. ) ;
#138 = DIRECTION ( 'NONE',  ( 0.000000000000000000, 0.000000000000000000, 1.000000000000000000 ) ) ;
#139 = UNCERTAINTY_MEASURE_WITH_UNIT (LENGTH_MEASURE( 1.000000000000000082E-05 ), #174, 'distance_accuracy_value', 'NONE');
#140 = DIRECTION ( 'NONE',  ( 0.000000000000000000, 0.000000000000000000, -1.000000000000000000 ) ) ;
#141 = PERSON_AND_ORGANIZATION ( #59, #85 ) ;
#142 = LOCAL_TIME ( 13, 19, 30.00000000000000000, #71 ) ;
#143 = DIRECTION ( 'NONE',  ( 0.000000000000000000, 0.000000000000000000, -1.000000000000000000 ) ) ;
#144 = APPROVAL_STATUS ( 'not_yet_approved' ) ;
#145 = CALENDAR_DATE ( 2022, 11, 3 ) ;
#146 = MANIFOLD_SOLID_BREP ( 'Boss-Extrude1', #5 ) ;
#147 = DATE_TIME_ROLE ( 'classification_date' ) ;
#148 = DATE_AND_TIME ( #6, #17 ) ;
#149 = LOCAL_TIME ( 13, 19, 30.00000000000000000, #28 ) ;
#150 = PERSON_AND_ORGANIZATION_ROLE ( 'design_supplier' ) ;
#151 = CC_DESIGN_PERSON_AND_ORGANIZATION_ASSIGNMENT ( #98, #60, ( #76 ) ) ;
#152 = DIRECTION ( 'NONE',  ( -1.000000000000000000, -0.000000000000000000, -0.000000000000000000 ) ) ;
#153 = EDGE_CURVE ( 'NONE', #109, #106, #29, .T. ) ;
#154 = APPLICATION_CONTEXT ( 'configuration controlled 3d designs of mechanical parts and assemblies' ) ;
#155 = CARTESIAN_POINT ( 'NONE',  ( -1.500000000000000000, 0.000000000000000000, 0.000000000000000000 ) ) ;
#156 = ORIENTED_EDGE ( 'NONE', *, *, #153, .T. ) ;
#157 = AXIS2_PLACEMENT_3D ( 'NONE', #117, #75, #138 ) ;
#158 = ORIENTED_EDGE ( 'NONE', *, *, #153, .F. ) ;
#159 = DESIGN_CONTEXT ( 'detailed design', #132, 'design' ) ;
#160 = CARTESIAN_POINT ( 'NONE',  ( 1.500000000000000000, 1.555301434917138433E-15, -12.69999999999999929 ) ) ;
#161 = AXIS2_PLACEMENT_3D ( 'NONE', #42, #129, #140 ) ;
#162 = CARTESIAN_POINT ( 'NONE',  ( 1.500000000000000000, 1.555301434917138433E-15, -12.69999999999999929 ) ) ;
#163 = FACE_OUTER_BOUND ( 'NONE', #126, .T. ) ;
#164 = DIRECTION ( 'NONE',  ( 0.000000000000000000, 0.000000000000000000, 1.000000000000000000 ) ) ;
#165 = SECURITY_CLASSIFICATION_LEVEL ( 'unclassified' ) ;
#166 = APPROVAL ( #136, 'UNSPECIFIED' ) ;
#167 = ORIENTED_EDGE ( 'NONE', *, *, #69, .F. ) ;
#168 = APPROVAL ( #144, 'UNSPECIFIED' ) ;
#169 = VECTOR ( 'NONE', #66, 1000.000000000000000 ) ;
#170 = EDGE_LOOP ( 'NONE', ( #158, #62, #38, #116 ) ) ;
#171 = DIRECTION ( 'NONE',  ( 1.000000000000000000, 0.000000000000000000, 0.000000000000000000 ) ) ;
#172 = PLANE ( 'NONE',  #11 ) ;
#173 = LINE ( 'NONE', #160, #169 ) ;
#174 =( LENGTH_UNIT ( ) NAMED_UNIT ( * ) SI_UNIT ( .MILLI., .METRE. ) );
#175 = AXIS2_PLACEMENT_3D ( 'NONE', #89, #171, #125 ) ;
ENDSEC;
END-ISO-10303-21;
