ISO-10303-21;
HEADER;
FILE_DESCRIPTION (( 'STEP AP203' ),
    '1' );
FILE_NAME ('step_35943.step',
    '2017-05-22T20:26:17',
    ( '' ),
    ( '' ),
    'SwSTEP 2.0',
    'SolidWorks 2016',
    '' );
FILE_SCHEMA (( 'CONFIG_CONTROL_DESIGN' ));
ENDSEC;

DATA;
#1 = DIRECTION ( 'NONE',  ( -0.0000000000000000000, -0.0000000000000000000, -1.000000000000000000 ) ) ;
#2 = CC_DESIGN_SECURITY_CLASSIFICATION ( #18, ( #40 ) ) ;
#3 = DATE_AND_TIME ( #5, #6 ) ;
#4 = CC_DESIGN_APPROVAL ( #8, ( #18 ) ) ;
#5 = CALENDAR_DATE ( 2017, 22, 5 ) ;
#6 = LOCAL_TIME ( 13, 26, 17.00000000000000000, #7 ) ;
#7 = COORDINATED_UNIVERSAL_TIME_OFFSET ( 7, 0, .BEHIND. ) ;
#8 = APPROVAL ( #125, 'UNSPECIFIED' ) ;
#9 = CC_DESIGN_DATE_AND_TIME_ASSIGNMENT ( #3, #183, ( #18 ) ) ;
#10 = DIRECTION ( 'NONE',  ( -1.000000000000000000, -0.0000000000000000000, -0.0000000000000000000 ) ) ;
#11 = PERSON_AND_ORGANIZATION ( #138, #187 ) ;
#12 = PERSON_AND_ORGANIZATION ( #138, #187 ) ;
#13 = DIRECTION ( 'NONE',  ( 1.000000000000000000, 0.0000000000000000000, 0.0000000000000000000 ) ) ;
#14 = CC_DESIGN_PERSON_AND_ORGANIZATION_ASSIGNMENT ( #11, #129, ( #18 ) ) ;
#15 = DESIGN_CONTEXT ( 'detailed design', #170, 'design' ) ;
#16 = PRODUCT ( 'step_35943', 'step_35943', '', ( #109 ) ) ;
#17 = CALENDAR_DATE ( 2017, 22, 5 ) ;
#18 = SECURITY_CLASSIFICATION ( '', '', #173 ) ;
#19 = DIRECTION ( 'NONE',  ( -0.0000000000000000000, 0.0000000000000000000, 1.000000000000000000 ) ) ;
#20 = PLANE ( 'NONE',  #205 ) ;
#21 = CC_DESIGN_PERSON_AND_ORGANIZATION_ASSIGNMENT ( #12, #237, ( #40 ) ) ;
#22 = PERSON_AND_ORGANIZATION ( #138, #187 ) ;
#23 = APPROVAL_DATE_TIME ( #24, #39 ) ;
#24 = DATE_AND_TIME ( #27, #28 ) ;
#25 = CC_DESIGN_PERSON_AND_ORGANIZATION_ASSIGNMENT ( #22, #139, ( #40 ) ) ;
#26 = CARTESIAN_POINT ( 'NONE',  ( -12.49999999999999600, -12.50000000000000200, 1.000000000000000000 ) ) ;
#27 = CALENDAR_DATE ( 2017, 22, 5 ) ;
#28 = LOCAL_TIME ( 13, 26, 17.00000000000000000, #29 ) ;
#29 = COORDINATED_UNIVERSAL_TIME_OFFSET ( 7, 0, .BEHIND. ) ;
#30 = DIRECTION ( 'NONE',  ( -0.0000000000000000000, -0.0000000000000000000, -1.000000000000000000 ) ) ;
#31 = APPROVAL_PERSON_ORGANIZATION ( #35, #39, #140 ) ;
#32 = CC_DESIGN_APPROVAL ( #39, ( #40 ) ) ;
#33 = DIRECTION ( 'NONE',  ( 1.000000000000000000, 0.0000000000000000000, 0.0000000000000000000 ) ) ;
#34 = DIRECTION ( 'NONE',  ( -1.387778780781445700E-016, 1.000000000000000000, -0.0000000000000000000 ) ) ;
#35 = PERSON_AND_ORGANIZATION ( #138, #187 ) ;
#36 = DATE_AND_TIME ( #38, #41 ) ;
#37 = DIRECTION ( 'NONE',  ( 0.0000000000000000000, 1.000000000000000000, 0.0000000000000000000 ) ) ;
#38 = CALENDAR_DATE ( 2017, 22, 5 ) ;
#39 = APPROVAL ( #147, 'UNSPECIFIED' ) ;
#40 = PRODUCT_DEFINITION_FORMATION_WITH_SPECIFIED_SOURCE ( 'ANY', '', #16, .NOT_KNOWN. ) ;
#41 = LOCAL_TIME ( 13, 26, 17.00000000000000000, #50 ) ;
#42 = ORIENTED_EDGE ( 'NONE', *, *, #117, .T. ) ;
#43 = PERSON_AND_ORGANIZATION ( #138, #187 ) ;
#44 = ORIENTED_EDGE ( 'NONE', *, *, #220, .T. ) ;
#45 = CC_DESIGN_DATE_AND_TIME_ASSIGNMENT ( #36, #150, ( #52 ) ) ;
#46 = APPROVAL ( #166, 'UNSPECIFIED' ) ;
#47 = ORIENTED_EDGE ( 'NONE', *, *, #222, .F. ) ;
#48 = CALENDAR_DATE ( 2017, 22, 5 ) ;
#49 = CC_DESIGN_PERSON_AND_ORGANIZATION_ASSIGNMENT ( #43, #151, ( #52 ) ) ;
#50 = COORDINATED_UNIVERSAL_TIME_OFFSET ( 7, 0, .BEHIND. ) ;
#51 = ORIENTED_EDGE ( 'NONE', *, *, #181, .F. ) ;
#52 = PRODUCT_DEFINITION ( 'UNKNOWN', '', #40, #15 ) ;
#53 = CARTESIAN_POINT ( 'NONE',  ( 12.50000000000000000, 12.49999999999999600, 1.000000000000000000 ) ) ;
#54 = ORIENTED_EDGE ( 'NONE', *, *, #199, .T. ) ;
#55 = PLANE ( 'NONE',  #82 ) ;
#56 = CARTESIAN_POINT ( 'NONE',  ( 12.50000000000000000, 12.49999999999999600, 0.0000000000000000000 ) ) ;
#57 = CC_DESIGN_PERSON_AND_ORGANIZATION_ASSIGNMENT ( #66, #83, ( #16 ) ) ;
#58 = CARTESIAN_POINT ( 'NONE',  ( -12.49999999999999600, -12.50000000000000200, 0.0000000000000000000 ) ) ;
#59 = AXIS2_PLACEMENT_3D ( 'NONE', #225, #226, #227 ) ;
#60 = FACE_OUTER_BOUND ( 'NONE', #207, .T. ) ;
#61 = CARTESIAN_POINT ( 'NONE',  ( -12.50000000000000000, 12.49999999999999600, 1.000000000000000000 ) ) ;
#62 = VERTEX_POINT ( 'NONE', #193 ) ;
#63 = ADVANCED_FACE ( 'NONE', ( #230 ), #20, .F. ) ;
#64 = VERTEX_POINT ( 'NONE', #213 ) ;
#65 = ADVANCED_FACE ( 'NONE', ( #235 ), #106, .F. ) ;
#66 = PERSON_AND_ORGANIZATION ( #138, #187 ) ;
#67 = PLANE ( 'NONE',  #98 ) ;
#68 = LINE ( 'NONE', #144, #233 ) ;
#69 = PRODUCT_RELATED_PRODUCT_CATEGORY ( 'detail', '', ( #16 ) ) ;
#70 = APPROVAL_ROLE ( '' ) ;
#71 = CARTESIAN_POINT ( 'NONE',  ( -12.49999999999999600, -12.50000000000000200, 1.000000000000000000 ) ) ;
#72 = CARTESIAN_POINT ( 'NONE',  ( 12.50000000000000400, -12.50000000000000200, 1.000000000000000000 ) ) ;
#73 = CARTESIAN_POINT ( 'NONE',  ( -12.50000000000000000, 12.49999999999999600, 1.000000000000000000 ) ) ;
#74 = VERTEX_POINT ( 'NONE', #26 ) ;
#75 = APPLICATION_CONTEXT ( 'configuration controlled 3d designs of mechanical parts and assemblies' ) ;
#76 = CARTESIAN_POINT ( 'NONE',  ( 0.0000000000000000000, 0.0000000000000000000, 0.0000000000000000000 ) ) ;
#77 = DATE_AND_TIME ( #17, #169 ) ;
#78 = CARTESIAN_POINT ( 'NONE',  ( -12.50000000000000000, 12.49999999999999600, 1.000000000000000000 ) ) ;
#79 = CARTESIAN_POINT ( 'NONE',  ( 12.50000000000000400, -12.50000000000000200, 0.0000000000000000000 ) ) ;
#80 = CARTESIAN_POINT ( 'NONE',  ( 0.0000000000000000000, 0.0000000000000000000, 1.000000000000000000 ) ) ;
#81 = DIRECTION ( 'NONE',  ( -0.0000000000000000000, -0.0000000000000000000, -1.000000000000000000 ) ) ;
#82 = AXIS2_PLACEMENT_3D ( 'NONE', #61, #126, #197 ) ;
#83 = PERSON_AND_ORGANIZATION_ROLE ( 'design_owner' ) ;
#84 =( GEOMETRIC_REPRESENTATION_CONTEXT ( 3 ) GLOBAL_UNCERTAINTY_ASSIGNED_CONTEXT ( ( #167 ) ) GLOBAL_UNIT_ASSIGNED_CONTEXT ( ( #108, #224, #223 ) ) REPRESENTATION_CONTEXT ( 'NONE', 'WORKASPACE' ) );
#85 = LINE ( 'NONE', #58, #116 ) ;
#86 = AXIS2_PLACEMENT_3D ( 'NONE', #211, #105, #182 ) ;
#87 = FACE_OUTER_BOUND ( 'NONE', #203, .T. ) ;
#88 = ADVANCED_FACE ( 'NONE', ( #87 ), #67, .F. ) ;
#89 = CARTESIAN_POINT ( 'NONE',  ( -12.50000000000000000, 12.49999999999999600, 0.0000000000000000000 ) ) ;
#90 = LINE ( 'NONE', #53, #100 ) ;
#91 = CARTESIAN_POINT ( 'NONE',  ( -12.50000000000000000, 12.49999999999999600, 1.000000000000000000 ) ) ;
#92 = CARTESIAN_POINT ( 'NONE',  ( -12.50000000000000000, 12.49999999999999600, 0.0000000000000000000 ) ) ;
#93 = CARTESIAN_POINT ( 'NONE',  ( 12.50000000000000000, 12.49999999999999600, 1.000000000000000000 ) ) ;
#94 = PLANE ( 'NONE',  #95 ) ;
#95 = AXIS2_PLACEMENT_3D ( 'NONE', #80, #19, #172 ) ;
#96 = LINE ( 'NONE', #78, #113 ) ;
#97 = ORIENTED_EDGE ( 'NONE', *, *, #220, .F. ) ;
#98 = AXIS2_PLACEMENT_3D ( 'NONE', #206, #131, #123 ) ;
#99 = FACE_OUTER_BOUND ( 'NONE', #214, .T. ) ;
#100 = VECTOR ( 'NONE', #30, 1000.000000000000000 ) ;
#101 = ORIENTED_EDGE ( 'NONE', *, *, #145, .F. ) ;
#102 = EDGE_CURVE ( 'NONE', #64, #146, #184, .T. ) ;
#103 = COORDINATED_UNIVERSAL_TIME_OFFSET ( 7, 0, .BEHIND. ) ;
#104 = ADVANCED_FACE ( 'NONE', ( #60 ), #194, .F. ) ;
#105 = DIRECTION ( 'NONE',  ( -1.000000000000000000, -1.387778780781445700E-016, 0.0000000000000000000 ) ) ;
#106 = PLANE ( 'NONE',  #175 ) ;
#107 = CARTESIAN_POINT ( 'NONE',  ( -12.49999999999999600, -12.50000000000000200, 0.0000000000000000000 ) ) ;
#108 =( LENGTH_UNIT ( ) NAMED_UNIT ( * ) SI_UNIT ( .MILLI., .METRE. ) );
#109 = MECHANICAL_CONTEXT ( 'NONE', #75, 'mechanical' ) ;
#110 = APPROVAL_PERSON_ORGANIZATION ( #196, #8, #70 ) ;
#111 = LINE ( 'NONE', #89, #141 ) ;
#112 = DIRECTION ( 'NONE',  ( 1.387778780781445700E-016, -1.000000000000000000, 0.0000000000000000000 ) ) ;
#113 = VECTOR ( 'NONE', #180, 1000.000000000000000 ) ;
#114 = APPLICATION_PROTOCOL_DEFINITION ( 'international standard', 'config_control_design', 1994, #75 ) ;
#115 = LINE ( 'NONE', #212, #152 ) ;
#116 = VECTOR ( 'NONE', #13, 1000.000000000000000 ) ;
#117 = EDGE_CURVE ( 'NONE', #62, #202, #68, .T. ) ;
#118 = VECTOR ( 'NONE', #81, 1000.000000000000000 ) ;
#119 = VECTOR ( 'NONE', #177, 1000.000000000000000 ) ;
#120 = DATE_AND_TIME ( #48, #163 ) ;
#121 = DIRECTION ( 'NONE',  ( -0.0000000000000000000, 0.0000000000000000000, 1.000000000000000000 ) ) ;
#122 = VECTOR ( 'NONE', #142, 1000.000000000000000 ) ;
#123 = DIRECTION ( 'NONE',  ( -1.387778780781445700E-016, 1.000000000000000000, 0.0000000000000000000 ) ) ;
#124 = VECTOR ( 'NONE', #229, 1000.000000000000000 ) ;
#125 = APPROVAL_STATUS ( 'not_yet_approved' ) ;
#126 = DIRECTION ( 'NONE',  ( 0.0000000000000000000, -1.000000000000000000, 0.0000000000000000000 ) ) ;
#127 = DIRECTION ( 'NONE',  ( 1.000000000000000000, 0.0000000000000000000, 0.0000000000000000000 ) ) ;
#128 = EDGE_CURVE ( 'NONE', #64, #201, #153, .T. ) ;
#129 = PERSON_AND_ORGANIZATION_ROLE ( 'classification_officer' ) ;
#130 = LINE ( 'NONE', #71, #122 ) ;
#131 = DIRECTION ( 'NONE',  ( 1.000000000000000000, 1.387778780781445700E-016, -0.0000000000000000000 ) ) ;
#132 = DIRECTION ( 'NONE',  ( 0.0000000000000000000, -0.0000000000000000000, 1.000000000000000000 ) ) ;
#133 = CARTESIAN_POINT ( 'NONE',  ( -12.49999999999999600, -12.50000000000000200, 1.000000000000000000 ) ) ;
#134 = EDGE_CURVE ( 'NONE', #164, #74, #157, .T. ) ;
#135 = EDGE_LOOP ( 'NONE', ( #165, #186, #148, #236 ) ) ;
#136 = FACE_OUTER_BOUND ( 'NONE', #174, .T. ) ;
#137 = EDGE_CURVE ( 'NONE', #201, #62, #143, .T. ) ;
#138 = PERSON ( 'UNSPECIFIED', 'UNSPECIFIED', 'UNSPECIFIED', ('UNSPECIFIED'), ('UNSPECIFIED'), ('UNSPECIFIED') ) ;
#139 = PERSON_AND_ORGANIZATION_ROLE ( 'creator' ) ;
#140 = APPROVAL_ROLE ( '' ) ;
#141 = VECTOR ( 'NONE', #112, 1000.000000000000000 ) ;
#142 = DIRECTION ( 'NONE',  ( -0.0000000000000000000, -0.0000000000000000000, -1.000000000000000000 ) ) ;
#143 = LINE ( 'NONE', #56, #124 ) ;
#144 = CARTESIAN_POINT ( 'NONE',  ( -12.50000000000000000, 12.49999999999999600, 0.0000000000000000000 ) ) ;
#145 = EDGE_CURVE ( 'NONE', #208, #201, #85, .T. ) ;
#146 = VERTEX_POINT ( 'NONE', #93 ) ;
#147 = APPROVAL_STATUS ( 'not_yet_approved' ) ;
#148 = ORIENTED_EDGE ( 'NONE', *, *, #158, .F. ) ;
#149 = EDGE_LOOP ( 'NONE', ( #97, #216, #210, #101 ) ) ;
#150 = DATE_TIME_ROLE ( 'creation_date' ) ;
#151 = PERSON_AND_ORGANIZATION_ROLE ( 'creator' ) ;
#152 = VECTOR ( 'NONE', #33, 1000.000000000000000 ) ;
#153 = LINE ( 'NONE', #72, #154 ) ;
#154 = VECTOR ( 'NONE', #1, 1000.000000000000000 ) ;
#155 = MANIFOLD_SOLID_BREP ( 'Boss-Extrude1', #200 ) ;
#156 = LINE ( 'NONE', #73, #118 ) ;
#157 = LINE ( 'NONE', #91, #119 ) ;
#158 = EDGE_CURVE ( 'NONE', #74, #64, #115, .T. ) ;
#159 = ORIENTED_EDGE ( 'NONE', *, *, #102, .T. ) ;
#160 = SHAPE_DEFINITION_REPRESENTATION ( #189, #204 ) ;
#161 = APPROVAL_ROLE ( '' ) ;
#162 = APPROVAL_DATE_TIME ( #77, #8 ) ;
#163 = LOCAL_TIME ( 13, 26, 17.00000000000000000, #103 ) ;
#164 = VERTEX_POINT ( 'NONE', #219 ) ;
#165 = ORIENTED_EDGE ( 'NONE', *, *, #145, .T. ) ;
#166 = APPROVAL_STATUS ( 'not_yet_approved' ) ;
#167 = UNCERTAINTY_MEASURE_WITH_UNIT (LENGTH_MEASURE( 1.000000000000000100E-005 ), #108, 'distance_accuracy_value', 'NONE');
#168 = APPLICATION_PROTOCOL_DEFINITION ( 'international standard', 'config_control_design', 1994, #170 ) ;
#169 = LOCAL_TIME ( 13, 26, 17.00000000000000000, #179 ) ;
#170 = APPLICATION_CONTEXT ( 'configuration controlled 3d designs of mechanical parts and assemblies' ) ;
#171 = ORIENTED_EDGE ( 'NONE', *, *, #102, .F. ) ;
#172 = DIRECTION ( 'NONE',  ( 1.000000000000000000, 0.0000000000000000000, 0.0000000000000000000 ) ) ;
#173 = SECURITY_CLASSIFICATION_LEVEL ( 'unclassified' ) ;
#174 = EDGE_LOOP ( 'NONE', ( #42, #51, #221, #54 ) ) ;
#175 = AXIS2_PLACEMENT_3D ( 'NONE', #76, #121, #127 ) ;
#176 = PERSON_AND_ORGANIZATION ( #138, #187 ) ;
#177 = DIRECTION ( 'NONE',  ( 1.387778780781445700E-016, -1.000000000000000000, 0.0000000000000000000 ) ) ;
#178 = APPROVAL_PERSON_ORGANIZATION ( #176, #46, #161 ) ;
#179 = COORDINATED_UNIVERSAL_TIME_OFFSET ( 7, 0, .BEHIND. ) ;
#180 = DIRECTION ( 'NONE',  ( -1.000000000000000000, -0.0000000000000000000, -0.0000000000000000000 ) ) ;
#181 = EDGE_CURVE ( 'NONE', #164, #202, #156, .T. ) ;
#182 = DIRECTION ( 'NONE',  ( 1.387778780781445700E-016, -1.000000000000000000, 0.0000000000000000000 ) ) ;
#183 = DATE_TIME_ROLE ( 'classification_date' ) ;
#184 = LINE ( 'NONE', #190, #234 ) ;
#185 = ORIENTED_EDGE ( 'NONE', *, *, #199, .F. ) ;
#186 = ORIENTED_EDGE ( 'NONE', *, *, #128, .F. ) ;
#187 = ORGANIZATION ( 'UNSPECIFIED', 'UNSPECIFIED', '' ) ;
#188 = APPROVAL_DATE_TIME ( #120, #46 ) ;
#189 = PRODUCT_DEFINITION_SHAPE ( 'NONE', 'NONE',  #52 ) ;
#190 = CARTESIAN_POINT ( 'NONE',  ( 12.50000000000000000, 12.49999999999999600, 1.000000000000000000 ) ) ;
#191 = ADVANCED_FACE ( 'NONE', ( #99 ), #94, .T. ) ;
#192 = ORIENTED_EDGE ( 'NONE', *, *, #158, .T. ) ;
#193 = CARTESIAN_POINT ( 'NONE',  ( 12.50000000000000000, 12.49999999999999600, 0.0000000000000000000 ) ) ;
#194 = PLANE ( 'NONE',  #86 ) ;
#195 = ORIENTED_EDGE ( 'NONE', *, *, #134, .T. ) ;
#196 = PERSON_AND_ORGANIZATION ( #138, #187 ) ;
#197 = DIRECTION ( 'NONE',  ( 0.0000000000000000000, -0.0000000000000000000, -1.000000000000000000 ) ) ;
#198 = ORIENTED_EDGE ( 'NONE', *, *, #137, .T. ) ;
#199 = EDGE_CURVE ( 'NONE', #146, #62, #90, .T. ) ;
#200 = CLOSED_SHELL ( 'NONE', ( #88, #63, #104, #231, #191, #65 ) ) ;
#201 = VERTEX_POINT ( 'NONE', #79 ) ;
#202 = VERTEX_POINT ( 'NONE', #92 ) ;
#203 = EDGE_LOOP ( 'NONE', ( #44, #47, #228, #215 ) ) ;
#204 = ADVANCED_BREP_SHAPE_REPRESENTATION ( 'step_35943', ( #155, #59 ), #84 ) ;
#205 = AXIS2_PLACEMENT_3D ( 'NONE', #133, #37, #132 ) ;
#206 = CARTESIAN_POINT ( 'NONE',  ( -12.50000000000000000, 12.49999999999999600, 1.000000000000000000 ) ) ;
#207 = EDGE_LOOP ( 'NONE', ( #198, #185, #171, #209 ) ) ;
#208 = VERTEX_POINT ( 'NONE', #107 ) ;
#209 = ORIENTED_EDGE ( 'NONE', *, *, #128, .T. ) ;
#210 = ORIENTED_EDGE ( 'NONE', *, *, #137, .F. ) ;
#211 = CARTESIAN_POINT ( 'NONE',  ( 12.50000000000000000, 12.49999999999999600, 1.000000000000000000 ) ) ;
#212 = CARTESIAN_POINT ( 'NONE',  ( -12.49999999999999600, -12.50000000000000200, 1.000000000000000000 ) ) ;
#213 = CARTESIAN_POINT ( 'NONE',  ( 12.50000000000000400, -12.50000000000000200, 1.000000000000000000 ) ) ;
#214 = EDGE_LOOP ( 'NONE', ( #195, #192, #159, #232 ) ) ;
#215 = ORIENTED_EDGE ( 'NONE', *, *, #181, .T. ) ;
#216 = ORIENTED_EDGE ( 'NONE', *, *, #117, .F. ) ;
#217 = CC_DESIGN_APPROVAL ( #46, ( #52 ) ) ;
#218 = EDGE_CURVE ( 'NONE', #146, #164, #96, .T. ) ;
#219 = CARTESIAN_POINT ( 'NONE',  ( -12.50000000000000000, 12.49999999999999600, 1.000000000000000000 ) ) ;
#220 = EDGE_CURVE ( 'NONE', #202, #208, #111, .T. ) ;
#221 = ORIENTED_EDGE ( 'NONE', *, *, #218, .F. ) ;
#222 = EDGE_CURVE ( 'NONE', #74, #208, #130, .T. ) ;
#223 =( NAMED_UNIT ( * ) SI_UNIT ( $, .STERADIAN. ) SOLID_ANGLE_UNIT ( ) );
#224 =( NAMED_UNIT ( * ) PLANE_ANGLE_UNIT ( ) SI_UNIT ( $, .RADIAN. ) );
#225 = CARTESIAN_POINT ( 'NONE',  ( 0.0000000000000000000, 0.0000000000000000000, 0.0000000000000000000 ) ) ;
#226 = DIRECTION ( 'NONE',  ( 0.0000000000000000000, 0.0000000000000000000, 1.000000000000000000 ) ) ;
#227 = DIRECTION ( 'NONE',  ( 1.000000000000000000, 0.0000000000000000000, 0.0000000000000000000 ) ) ;
#228 = ORIENTED_EDGE ( 'NONE', *, *, #134, .F. ) ;
#229 = DIRECTION ( 'NONE',  ( -1.387778780781445700E-016, 1.000000000000000000, -0.0000000000000000000 ) ) ;
#230 = FACE_OUTER_BOUND ( 'NONE', #135, .T. ) ;
#231 = ADVANCED_FACE ( 'NONE', ( #136 ), #55, .F. ) ;
#232 = ORIENTED_EDGE ( 'NONE', *, *, #218, .T. ) ;
#233 = VECTOR ( 'NONE', #10, 1000.000000000000000 ) ;
#234 = VECTOR ( 'NONE', #34, 1000.000000000000000 ) ;
#235 = FACE_OUTER_BOUND ( 'NONE', #149, .T. ) ;
#236 = ORIENTED_EDGE ( 'NONE', *, *, #222, .T. ) ;
#237 = PERSON_AND_ORGANIZATION_ROLE ( 'design_supplier' ) ;
ENDSEC;
END-ISO-10303-21;
