ISO-10303-21;
HEADER;
FILE_DESCRIPTION (( 'STEP AP203' ),
    '1' );
FILE_NAME ('TTN225629-E0W.STEP',
    '2022-08-12T15:56:09',
    ( '' ),
    ( '' ),
    'SwSTEP 2.0',
    'SolidWorks 2018',
    '' );
FILE_SCHEMA (( 'CONFIG_CONTROL_DESIGN' ));
ENDSEC;

DATA;
#1 = AXIS2_PLACEMENT_3D ( 'NONE', #101, #121, #236 ) ;
#2 = CARTESIAN_POINT ( 'NONE',  ( 0.000000000000000000, 0.000000000000000000, 0.02526599999999998292 ) ) ;
#3 = PRODUCT_RELATED_PRODUCT_CATEGORY ( 'detail', '', ( #178 ) ) ;
#4 = CARTESIAN_POINT ( 'NONE',  ( 1.555301434917138711E-18, 0.01270000000000000122, 0.002484435710983878224 ) ) ;
#5 = ORIENTED_EDGE ( 'NONE', *, *, #317, .T. ) ;
#6 = LOCAL_TIME ( 11, 56, 9.000000000000000000, #124 ) ;
#7 = VERTEX_POINT ( 'NONE', #105 ) ;
#8 = CARTESIAN_POINT ( 'NONE',  ( 0.000000000000000000, 0.000000000000000000, 0.02526599999999998292 ) ) ;
#9 = PERSON_AND_ORGANIZATION ( #294, #89 ) ;
#10 = APPROVAL_STATUS ( 'not_yet_approved' ) ;
#11 = EDGE_CURVE ( 'NONE', #193, #215, #211, .T. ) ;
#12 = SPHERICAL_SURFACE ( 'NONE', #240, 0.02096500000000000447 ) ;
#13 = ORIENTED_EDGE ( 'NONE', *, *, #264, .T. ) ;
#14 = AXIS2_PLACEMENT_3D ( 'NONE', #128, #313, #170 ) ;
#15 = SECURITY_CLASSIFICATION ( '', '', #93 ) ;
#16 = DIRECTION ( 'NONE',  ( 0.000000000000000000, 0.000000000000000000, 1.000000000000000000 ) ) ;
#17 =( NAMED_UNIT ( * ) SI_UNIT ( $, .STERADIAN. ) SOLID_ANGLE_UNIT ( ) );
#18 = CALENDAR_DATE ( 2022, 12, 8 ) ;
#19 = SPHERICAL_SURFACE ( 'NONE', #136, 0.02326599999999999155 ) ;
#20 = AXIS2_PLACEMENT_3D ( 'NONE', #147, #305, #74 ) ;
#21 = DIRECTION ( 'NONE',  ( 0.000000000000000000, -1.000000000000000000, -1.654875722372341266E-16 ) ) ;
#22 = CC_DESIGN_SECURITY_CLASSIFICATION ( #15, ( #213 ) ) ;
#23 = CIRCLE ( 'NONE', #190, 0.01270000000000000122 ) ;
#24 = EDGE_LOOP ( 'NONE', ( #135, #166, #54, #68 ) ) ;
#25 = DIRECTION ( 'NONE',  ( 0.000000000000000000, 1.000000000000000000, 2.076425417788105843E-16 ) ) ;
#26 = DIRECTION ( 'NONE',  ( 0.000000000000000000, -1.000000000000000000, -1.707404996040164265E-16 ) ) ;
#27 = LINE ( 'NONE', #212, #220 ) ;
#28 = CARTESIAN_POINT ( 'NONE',  ( 0.000000000000000000, 0.000000000000000000, 0.01896500000000000269 ) ) ;
#29 = EDGE_CURVE ( 'NONE', #78, #274, #116, .T. ) ;
#30 = ORIENTED_EDGE ( 'NONE', *, *, #11, .T. ) ;
#31 = CARTESIAN_POINT ( 'NONE',  ( 0.000000000000000000, 0.000000000000000000, 0.01896500000000000269 ) ) ;
#32 = LOCAL_TIME ( 11, 56, 9.000000000000000000, #46 ) ;
#33 = ORIENTED_EDGE ( 'NONE', *, *, #249, .T. ) ;
#34 = DIRECTION ( 'NONE',  ( -1.000000000000000000, 0.000000000000000000, -0.000000000000000000 ) ) ;
#35 = AXIS2_PLACEMENT_3D ( 'NONE', #209, #60, #91 ) ;
#36 = CONICAL_SURFACE ( 'NONE', #14, 0.01270000000000000122, 0.4600305627477236925 ) ;
#37 = ORIENTED_EDGE ( 'NONE', *, *, #175, .F. ) ;
#38 = CC_DESIGN_PERSON_AND_ORGANIZATION_ASSIGNMENT ( #59, #254, ( #15 ) ) ;
#39 = APPLICATION_PROTOCOL_DEFINITION ( 'international standard', 'config_control_design', 1994, #42 ) ;
#40 = ADVANCED_FACE ( 'NONE', ( #303 ), #125, .T. ) ;
#41 = VERTEX_POINT ( 'NONE', #158 ) ;
#42 = APPLICATION_CONTEXT ( 'configuration controlled 3d designs of mechanical parts and assemblies' ) ;
#43 = PERSON_AND_ORGANIZATION_ROLE ( 'design_owner' ) ;
#44 = CARTESIAN_POINT ( 'NONE',  ( 0.000000000000000000, 5.698385335652828748E-18, 0.001999999999999991368 ) ) ;
#45 = EDGE_CURVE ( 'NONE', #297, #70, #179, .T. ) ;
#46 = COORDINATED_UNIVERSAL_TIME_OFFSET ( 5, 0, .BEHIND. ) ;
#47 = FACE_OUTER_BOUND ( 'NONE', #159, .T. ) ;
#48 = CARTESIAN_POINT ( 'NONE',  ( 0.000000000000000000, 0.01253156117081758933, 0.005663277469135643075 ) ) ;
#49 = CC_DESIGN_APPROVAL ( #281, ( #96 ) ) ;
#50 = CALENDAR_DATE ( 2022, 12, 8 ) ;
#51 = ORIENTED_EDGE ( 'NONE', *, *, #277, .F. ) ;
#52 = DIRECTION ( 'NONE',  ( 0.000000000000000000, -1.000000000000000000, -1.654875722372341266E-16 ) ) ;
#53 = LINE ( 'NONE', #83, #75 ) ;
#54 = ORIENTED_EDGE ( 'NONE', *, *, #237, .T. ) ;
#55 = AXIS2_PLACEMENT_3D ( 'NONE', #205, #246, #243 ) ;
#56 = APPROVAL ( #242, 'UNSPECIFIED' ) ;
#57 = CARTESIAN_POINT ( 'NONE',  ( 0.000000000000000000, -6.561406921182654056E-19, 0.005571981532788046476 ) ) ;
#58 = CARTESIAN_POINT ( 'NONE',  ( 0.000000000000000000, -8.898645745339734367E-20, 0.002484435710983876056 ) ) ;
#59 = PERSON_AND_ORGANIZATION ( #294, #89 ) ;
#60 = DIRECTION ( 'NONE',  ( 0.000000000000000000, 1.836909530733612233E-16, -1.000000000000000000 ) ) ;
#61 = ORIENTED_EDGE ( 'NONE', *, *, #249, .F. ) ;
#62 = CARTESIAN_POINT ( 'NONE',  ( 0.000000000000000000, -0.01270000000000000122, 0.002484435710983873887 ) ) ;
#63 = DIRECTION ( 'NONE',  ( 0.000000000000000000, -1.000000000000000000, -1.707404996040164265E-16 ) ) ;
#64 = APPROVAL_STATUS ( 'not_yet_approved' ) ;
#65 = DIRECTION ( 'NONE',  ( 0.000000000000000000, -1.000000000000000000, -2.076425417788106089E-16 ) ) ;
#66 = APPROVAL_DATE_TIME ( #133, #311 ) ;
#67 = APPROVAL_DATE_TIME ( #307, #281 ) ;
#68 = ORIENTED_EDGE ( 'NONE', *, *, #171, .F. ) ;
#69 = EDGE_CURVE ( 'NONE', #193, #143, #292, .T. ) ;
#70 = VERTEX_POINT ( 'NONE', #48 ) ;
#71 = ADVANCED_FACE ( 'NONE', ( #318 ), #323, .T. ) ;
#72 = DIRECTION ( 'NONE',  ( 0.000000000000000000, -1.000000000000000000, -2.076425417788106089E-16 ) ) ;
#73 = CARTESIAN_POINT ( 'NONE',  ( 0.000000000000000000, 3.600842784527123390E-18, 0.005663277469135637870 ) ) ;
#74 = DIRECTION ( 'NONE',  ( 1.224646799147353207E-16, 1.000000000000000000, 0.000000000000000000 ) ) ;
#75 = VECTOR ( 'NONE', #326, 1.000000000000000000 ) ;
#76 = DIRECTION ( 'NONE',  ( 0.000000000000000000, 1.836909530733612233E-16, -1.000000000000000000 ) ) ;
#77 =( GEOMETRIC_REPRESENTATION_CONTEXT ( 3 ) GLOBAL_UNCERTAINTY_ASSIGNED_CONTEXT ( ( #109 ) ) GLOBAL_UNIT_ASSIGNED_CONTEXT ( ( #284, #104, #17 ) ) REPRESENTATION_CONTEXT ( 'NONE', 'WORKASPACE' ) );
#78 = VERTEX_POINT ( 'NONE', #203 ) ;
#79 = DESIGN_CONTEXT ( 'detailed design', #222, 'design' ) ;
#80 = DIRECTION ( 'NONE',  ( -0.000000000000000000, -1.836909530733569092E-16, 1.000000000000000000 ) ) ;
#81 = CIRCLE ( 'NONE', #35, 0.01270000000000000122 ) ;
#82 = EDGE_LOOP ( 'NONE', ( #99, #164, #127 ) ) ;
#83 = CARTESIAN_POINT ( 'NONE',  ( 0.000000000000000000, -0.01270000000000000122, 0.001999999999999997873 ) ) ;
#84 = CIRCLE ( 'NONE', #280, 0.01253156117081758239 ) ;
#85 = DIRECTION ( 'NONE',  ( 0.000000000000000000, 1.000000000000000000, 2.076425417788105843E-16 ) ) ;
#86 = EDGE_CURVE ( 'NONE', #78, #215, #198, .T. ) ;
#87 = CLOSED_SHELL ( 'NONE', ( #95, #308, #276, #40, #129, #217, #122, #120, #154, #71 ) ) ;
#88 = DIRECTION ( 'NONE',  ( 0.000000000000000000, 1.000000000000000000, 2.048885995248197167E-16 ) ) ;
#89 = ORGANIZATION ( 'UNSPECIFIED', 'UNSPECIFIED', '' ) ;
#90 = ORIENTED_EDGE ( 'NONE', *, *, #251, .F. ) ;
#91 = DIRECTION ( 'NONE',  ( 0.000000000000000000, 1.000000000000000000, 2.048885995248197167E-16 ) ) ;
#92 = DIRECTION ( 'NONE',  ( 1.076666156890475308E-16, -0.8791646355831673754, -0.4765181460762186738 ) ) ;
#93 = SECURITY_CLASSIFICATION_LEVEL ( 'unclassified' ) ;
#94 = FACE_OUTER_BOUND ( 'NONE', #139, .T. ) ;
#95 = ADVANCED_FACE ( 'NONE', ( #47 ), #316, .T. ) ;
#96 = PRODUCT_DEFINITION ( 'UNKNOWN', '', #213, #79 ) ;
#97 = CC_DESIGN_DATE_AND_TIME_ASSIGNMENT ( #202, #119, ( #96 ) ) ;
#98 = FACE_OUTER_BOUND ( 'NONE', #225, .T. ) ;
#99 = ORIENTED_EDGE ( 'NONE', *, *, #295, .F. ) ;
#100 = APPROVAL_ROLE ( '' ) ;
#101 = CARTESIAN_POINT ( 'NONE',  ( 0.000000000000000000, 3.085976679812916893E-18, 0.002165170568114299643 ) ) ;
#102 = DATE_AND_TIME ( #18, #32 ) ;
#103 = CIRCLE ( 'NONE', #114, 0.01270000000000000122 ) ;
#104 =( NAMED_UNIT ( * ) PLANE_ANGLE_UNIT ( ) SI_UNIT ( $, .RADIAN. ) );
#105 = CARTESIAN_POINT ( 'NONE',  ( 0.000000000000000000, -0.01270000000000000122, 0.005571981532788043874 ) ) ;
#106 = SPHERICAL_SURFACE ( 'NONE', #230, 0.02326599999999999155 ) ;
#107 = DIRECTION ( 'NONE',  ( 0.000000000000000000, 1.836909530733569092E-16, -1.000000000000000000 ) ) ;
#108 = ORIENTED_EDGE ( 'NONE', *, *, #29, .F. ) ;
#109 = UNCERTAINTY_MEASURE_WITH_UNIT (LENGTH_MEASURE( 1.000000000000000082E-05 ), #284, 'distance_accuracy_value', 'NONE');
#110 = ORIENTED_EDGE ( 'NONE', *, *, #69, .F. ) ;
#111 = CARTESIAN_POINT ( 'NONE',  ( 1.555301434917138711E-18, 0.01270000000000000122, 0.005571981532788049078 ) ) ;
#112 = LINE ( 'NONE', #241, #231 ) ;
#113 = ORIENTED_EDGE ( 'NONE', *, *, #207, .F. ) ;
#114 = AXIS2_PLACEMENT_3D ( 'NONE', #57, #233, #88 ) ;
#115 = DIRECTION ( 'NONE',  ( 5.437131658936031921E-17, 0.4439754925846025602, 0.8960389288330389279 ) ) ;
#116 = CIRCLE ( 'NONE', #310, 0.01254180832494051177 ) ;
#117 = CARTESIAN_POINT ( 'NONE',  ( 1.534673627616101172E-18, -0.01253156117081758412, 0.005663277469135635268 ) ) ;
#118 = DIRECTION ( 'NONE',  ( -1.000000000000000000, 0.000000000000000000, 0.000000000000000000 ) ) ;
#119 = DATE_TIME_ROLE ( 'creation_date' ) ;
#120 = ADVANCED_FACE ( 'NONE', ( #267 ), #148, .T. ) ;
#121 = DIRECTION ( 'NONE',  ( 0.000000000000000000, 1.836909530733569092E-16, -1.000000000000000000 ) ) ;
#122 = ADVANCED_FACE ( 'NONE', ( #252 ), #12, .T. ) ;
#123 = LOCAL_TIME ( 11, 56, 9.000000000000000000, #168 ) ;
#124 = COORDINATED_UNIVERSAL_TIME_OFFSET ( 5, 0, .BEHIND. ) ;
#125 = SPHERICAL_SURFACE ( 'NONE', #299, 0.02096500000000000447 ) ;
#126 = PRODUCT_DEFINITION_SHAPE ( 'NONE', 'NONE',  #96 ) ;
#127 = ORIENTED_EDGE ( 'NONE', *, *, #29, .T. ) ;
#128 = CARTESIAN_POINT ( 'NONE',  ( 0.000000000000000000, -8.898645745339693441E-20, 0.002484435710983876056 ) ) ;
#129 = ADVANCED_FACE ( 'NONE', ( #94 ), #106, .F. ) ;
#130 = DIRECTION ( 'NONE',  ( 0.000000000000000000, 0.8791646355831675974, -0.4765181460762183407 ) ) ;
#131 = APPLICATION_PROTOCOL_DEFINITION ( 'international standard', 'config_control_design', 1994, #222 ) ;
#132 = DIRECTION ( 'NONE',  ( 0.000000000000000000, -1.000000000000000000, -1.728940746653687943E-16 ) ) ;
#133 = DATE_AND_TIME ( #50, #306 ) ;
#134 = APPROVAL_PERSON_ORGANIZATION ( #188, #56, #261 ) ;
#135 = ORIENTED_EDGE ( 'NONE', *, *, #175, .T. ) ;
#136 = AXIS2_PLACEMENT_3D ( 'NONE', #298, #118, #304 ) ;
#137 = CARTESIAN_POINT ( 'NONE',  ( 0.000000000000000000, 3.085976679812916893E-18, 0.002165170568114299643 ) ) ;
#138 = CC_DESIGN_DATE_AND_TIME_ASSIGNMENT ( #224, #275, ( #15 ) ) ;
#139 = EDGE_LOOP ( 'NONE', ( #247, #201, #253 ) ) ;
#140 = DIRECTION ( 'NONE',  ( 0.000000000000000000, -1.000000000000000000, -1.707404996040164265E-16 ) ) ;
#141 = APPROVAL_PERSON_ORGANIZATION ( #187, #311, #185 ) ;
#142 = LOCAL_TIME ( 11, 56, 9.000000000000000000, #214 ) ;
#143 = VERTEX_POINT ( 'NONE', #111 ) ;
#144 = CARTESIAN_POINT ( 'NONE',  ( 0.000000000000000000, -8.898645745339693441E-20, 0.002484435710983876056 ) ) ;
#145 = APPROVAL_PERSON_ORGANIZATION ( #206, #281, #100 ) ;
#146 = EDGE_LOOP ( 'NONE', ( #110, #30, #283, #33 ) ) ;
#147 = CARTESIAN_POINT ( 'NONE',  ( 0.000000000000000000, 0.000000000000000000, 0.01896500000000000269 ) ) ;
#148 = CYLINDRICAL_SURFACE ( 'NONE', #210, 0.01270000000000000122 ) ;
#149 = MANIFOLD_SOLID_BREP ( 'TTN225641-1-solid1', #87 ) ;
#150 = AXIS2_PLACEMENT_3D ( 'NONE', #144, #325, #228 ) ;
#151 = CC_DESIGN_APPROVAL ( #311, ( #15 ) ) ;
#152 = PERSON_AND_ORGANIZATION ( #294, #89 ) ;
#153 = ORIENTED_EDGE ( 'NONE', *, *, #264, .F. ) ;
#154 = ADVANCED_FACE ( 'NONE', ( #98 ), #165, .T. ) ;
#155 = DIRECTION ( 'NONE',  ( -0.000000000000000000, -1.836909530733612233E-16, 1.000000000000000000 ) ) ;
#156 = FACE_OUTER_BOUND ( 'NONE', #324, .T. ) ;
#157 = PERSON_AND_ORGANIZATION_ROLE ( 'creator' ) ;
#158 = CARTESIAN_POINT ( 'NONE',  ( -1.534673627616101172E-18, -0.01253156117081757892, 0.005663277469135636136 ) ) ;
#159 = EDGE_LOOP ( 'NONE', ( #181, #235, #174, #245 ) ) ;
#160 = CALENDAR_DATE ( 2022, 12, 8 ) ;
#161 = DIRECTION ( 'NONE',  ( -1.000000000000000000, 0.000000000000000000, 0.000000000000000000 ) ) ;
#162 = DIRECTION ( 'NONE',  ( -1.224646799147353207E-16, -1.000000000000000000, 0.000000000000000000 ) ) ;
#163 = AXIS2_PLACEMENT_3D ( 'NONE', #319, #291, #25 ) ;
#164 = ORIENTED_EDGE ( 'NONE', *, *, #207, .T. ) ;
#165 = CONICAL_SURFACE ( 'NONE', #150, 0.01270000000000000122, 0.4600305627477236925 ) ;
#166 = ORIENTED_EDGE ( 'NONE', *, *, #69, .T. ) ;
#167 = CARTESIAN_POINT ( 'NONE',  ( 0.000000000000000000, 2.567344823976709356E-18, -0.002000000000000001776 ) ) ;
#168 = COORDINATED_UNIVERSAL_TIME_OFFSET ( 5, 0, .BEHIND. ) ;
#169 = VECTOR ( 'NONE', #320, 1.000000000000000000 ) ;
#170 = DIRECTION ( 'NONE',  ( 0.000000000000000000, -1.000000000000000000, -1.707404996040164265E-16 ) ) ;
#171 = EDGE_CURVE ( 'NONE', #215, #7, #53, .T. ) ;
#172 = PERSON_AND_ORGANIZATION_ROLE ( 'design_supplier' ) ;
#173 = CARTESIAN_POINT ( 'NONE',  ( 0.000000000000000000, -0.01270000000000000122, 0.002484435710983873887 ) ) ;
#174 = ORIENTED_EDGE ( 'NONE', *, *, #237, .F. ) ;
#175 = EDGE_CURVE ( 'NONE', #215, #193, #23, .T. ) ;
#176 = DIRECTION ( 'NONE',  ( 1.000000000000000000, 0.000000000000000000, 0.000000000000000000 ) ) ;
#177 = CARTESIAN_POINT ( 'NONE',  ( 0.000000000000000000, -8.898645745339734367E-20, 0.002484435710983876056 ) ) ;
#178 = PRODUCT ( 'TTN225629-E0W', 'TTN225629-E0W', '', ( #195 ) ) ;
#179 = CIRCLE ( 'NONE', #55, 0.02326599999999999155 ) ;
#180 = CIRCLE ( 'NONE', #321, 0.01253156117081758239 ) ;
#181 = ORIENTED_EDGE ( 'NONE', *, *, #271, .F. ) ;
#182 = CARTESIAN_POINT ( 'NONE',  ( 1.535928542065802467E-18, 0.01254180832494051351, 0.002165170568114302245 ) ) ;
#183 = ORIENTED_EDGE ( 'NONE', *, *, #86, .F. ) ;
#184 = DIRECTION ( 'NONE',  ( 0.000000000000000000, 0.000000000000000000, 1.000000000000000000 ) ) ;
#185 = APPROVAL_ROLE ( '' ) ;
#186 = EDGE_CURVE ( 'NONE', #41, #7, #244, .T. ) ;
#187 = PERSON_AND_ORGANIZATION ( #294, #89 ) ;
#188 = PERSON_AND_ORGANIZATION ( #294, #89 ) ;
#189 = VECTOR ( 'NONE', #200, 1.000000000000000000 ) ;
#190 = AXIS2_PLACEMENT_3D ( 'NONE', #58, #300, #63 ) ;
#191 = CC_DESIGN_APPROVAL ( #56, ( #213 ) ) ;
#192 = FACE_OUTER_BOUND ( 'NONE', #309, .T. ) ;
#193 = VERTEX_POINT ( 'NONE', #4 ) ;
#194 = DIRECTION ( 'NONE',  ( 1.000000000000000000, 0.000000000000000000, 0.000000000000000000 ) ) ;
#195 = MECHANICAL_CONTEXT ( 'NONE', #42, 'mechanical' ) ;
#196 = CARTESIAN_POINT ( 'NONE',  ( 0.000000000000000000, 0.000000000000000000, 0.002000000000000000042 ) ) ;
#197 = COORDINATED_UNIVERSAL_TIME_OFFSET ( 5, 0, .BEHIND. ) ;
#198 = LINE ( 'NONE', #173, #189 ) ;
#199 = AXIS2_PLACEMENT_3D ( 'NONE', #263, #16, #194 ) ;
#200 = DIRECTION ( 'NONE',  ( 0.000000000000000000, -0.4439754925846028932, 0.8960389288330387059 ) ) ;
#201 = ORIENTED_EDGE ( 'NONE', *, *, #223, .T. ) ;
#202 = DATE_AND_TIME ( #259, #6 ) ;
#203 = CARTESIAN_POINT ( 'NONE',  ( 0.000000000000000000, -0.01254180832494050830, 0.002165170568114298776 ) ) ;
#204 = ORIENTED_EDGE ( 'NONE', *, *, #86, .T. ) ;
#205 = CARTESIAN_POINT ( 'NONE',  ( 0.000000000000000000, 0.000000000000000000, 0.02526599999999998292 ) ) ;
#206 = PERSON_AND_ORGANIZATION ( #294, #89 ) ;
#207 = EDGE_CURVE ( 'NONE', #312, #78, #256, .T. ) ;
#208 = DIRECTION ( 'NONE',  ( 1.000000000000000000, 0.000000000000000000, 0.000000000000000000 ) ) ;
#209 = CARTESIAN_POINT ( 'NONE',  ( 0.000000000000000000, -6.561406921182654056E-19, 0.005571981532788046476 ) ) ;
#210 = AXIS2_PLACEMENT_3D ( 'NONE', #248, #293, #140 ) ;
#211 = CIRCLE ( 'NONE', #226, 0.01270000000000000122 ) ;
#212 = CARTESIAN_POINT ( 'NONE',  ( 1.555301434917138711E-18, 0.01270000000000000122, 0.002484435710983878224 ) ) ;
#213 = PRODUCT_DEFINITION_FORMATION_WITH_SPECIFIED_SOURCE ( 'ANY', '', #178, .NOT_KNOWN. ) ;
#214 = COORDINATED_UNIVERSAL_TIME_OFFSET ( 5, 0, .BEHIND. ) ;
#215 = VERTEX_POINT ( 'NONE', #62 ) ;
#216 = CIRCLE ( 'NONE', #20, 0.02096500000000000447 ) ;
#217 = ADVANCED_FACE ( 'NONE', ( #156 ), #19, .F. ) ;
#218 = DIRECTION ( 'NONE',  ( 0.000000000000000000, -1.000000000000000000, -1.707404996040164265E-16 ) ) ;
#219 = AXIS2_PLACEMENT_3D ( 'NONE', #8, #302, #162 ) ;
#220 = VECTOR ( 'NONE', #115, 1.000000000000000000 ) ;
#221 = EDGE_LOOP ( 'NONE', ( #113, #232, #239 ) ) ;
#222 = APPLICATION_CONTEXT ( 'configuration controlled 3d designs of mechanical parts and assemblies' ) ;
#223 = EDGE_CURVE ( 'NONE', #297, #41, #296, .T. ) ;
#224 = DATE_AND_TIME ( #227, #123 ) ;
#225 = EDGE_LOOP ( 'NONE', ( #90, #108, #204, #258 ) ) ;
#226 = AXIS2_PLACEMENT_3D ( 'NONE', #177, #80, #26 ) ;
#227 = CALENDAR_DATE ( 2022, 12, 8 ) ;
#228 = DIRECTION ( 'NONE',  ( 0.000000000000000000, -1.000000000000000000, -1.707404996040164265E-16 ) ) ;
#229 = EDGE_LOOP ( 'NONE', ( #260, #153, #5, #61 ) ) ;
#230 = AXIS2_PLACEMENT_3D ( 'NONE', #2, #161, #270 ) ;
#231 = VECTOR ( 'NONE', #130, 1.000000000000000000 ) ;
#232 = ORIENTED_EDGE ( 'NONE', *, *, #295, .T. ) ;
#233 = DIRECTION ( 'NONE',  ( 0.000000000000000000, 1.836909530733612233E-16, -1.000000000000000000 ) ) ;
#234 = APPROVAL_DATE_TIME ( #102, #56 ) ;
#235 = ORIENTED_EDGE ( 'NONE', *, *, #186, .T. ) ;
#236 = DIRECTION ( 'NONE',  ( 0.000000000000000000, -1.000000000000000000, -1.728940746653687943E-16 ) ) ;
#237 = EDGE_CURVE ( 'NONE', #143, #7, #81, .T. ) ;
#238 = CIRCLE ( 'NONE', #1, 0.01254180832494051177 ) ;
#239 = ORIENTED_EDGE ( 'NONE', *, *, #277, .T. ) ;
#240 = AXIS2_PLACEMENT_3D ( 'NONE', #28, #208, #52 ) ;
#241 = CARTESIAN_POINT ( 'NONE',  ( 0.000000000000000000, 0.01253156117081758412, 0.005663277469135640473 ) ) ;
#242 = APPROVAL_STATUS ( 'not_yet_approved' ) ;
#243 = DIRECTION ( 'NONE',  ( 0.000000000000000000, 0.000000000000000000, -1.000000000000000000 ) ) ;
#244 = LINE ( 'NONE', #117, #278 ) ;
#245 = ORIENTED_EDGE ( 'NONE', *, *, #317, .F. ) ;
#246 = DIRECTION ( 'NONE',  ( 1.000000000000000000, 0.000000000000000000, 0.000000000000000000 ) ) ;
#247 = ORIENTED_EDGE ( 'NONE', *, *, #45, .F. ) ;
#248 = CARTESIAN_POINT ( 'NONE',  ( 0.000000000000000000, 0.000000000000000000, 0.002000000000000000042 ) ) ;
#249 = EDGE_CURVE ( 'NONE', #7, #143, #103, .T. ) ;
#250 = PERSON_AND_ORGANIZATION ( #294, #89 ) ;
#251 = EDGE_CURVE ( 'NONE', #274, #193, #27, .T. ) ;
#252 = FACE_OUTER_BOUND ( 'NONE', #82, .T. ) ;
#253 = ORIENTED_EDGE ( 'NONE', *, *, #271, .T. ) ;
#254 = PERSON_AND_ORGANIZATION_ROLE ( 'classification_officer' ) ;
#255 = DIRECTION ( 'NONE',  ( -0.000000000000000000, -1.836909530733566134E-16, 1.000000000000000000 ) ) ;
#256 = CIRCLE ( 'NONE', #266, 0.02096500000000000447 ) ;
#257 = CC_DESIGN_PERSON_AND_ORGANIZATION_ASSIGNMENT ( #250, #43, ( #178 ) ) ;
#258 = ORIENTED_EDGE ( 'NONE', *, *, #11, .F. ) ;
#259 = CALENDAR_DATE ( 2022, 12, 8 ) ;
#260 = ORIENTED_EDGE ( 'NONE', *, *, #186, .F. ) ;
#261 = APPROVAL_ROLE ( '' ) ;
#262 = DIRECTION ( 'NONE',  ( -0.000000000000000000, -1.836909530733612233E-16, 1.000000000000000000 ) ) ;
#263 = CARTESIAN_POINT ( 'NONE',  ( 0.000000000000000000, 0.000000000000000000, 0.000000000000000000 ) ) ;
#264 = EDGE_CURVE ( 'NONE', #70, #41, #84, .T. ) ;
#265 = CARTESIAN_POINT ( 'NONE',  ( 0.000000000000000000, 0.000000000000000000, 0.01896500000000000269 ) ) ;
#266 = AXIS2_PLACEMENT_3D ( 'NONE', #31, #34, #184 ) ;
#267 = FACE_OUTER_BOUND ( 'NONE', #146, .T. ) ;
#268 = ORIENTED_EDGE ( 'NONE', *, *, #45, .T. ) ;
#269 = ADVANCED_BREP_SHAPE_REPRESENTATION ( 'TTN225629-E0W', ( #149, #199 ), #77 ) ;
#270 = DIRECTION ( 'NONE',  ( 0.000000000000000000, 1.000000000000000000, 1.491209039780630702E-16 ) ) ;
#271 = EDGE_CURVE ( 'NONE', #41, #70, #180, .T. ) ;
#272 = AXIS2_PLACEMENT_3D ( 'NONE', #290, #76, #85 ) ;
#273 = FACE_OUTER_BOUND ( 'NONE', #24, .T. ) ;
#274 = VERTEX_POINT ( 'NONE', #182 ) ;
#275 = DATE_TIME_ROLE ( 'classification_date' ) ;
#276 = ADVANCED_FACE ( 'NONE', ( #273 ), #288, .T. ) ;
#277 = EDGE_CURVE ( 'NONE', #274, #78, #238, .T. ) ;
#278 = VECTOR ( 'NONE', #92, 1.000000000000000000 ) ;
#279 = ORIENTED_EDGE ( 'NONE', *, *, #223, .F. ) ;
#280 = AXIS2_PLACEMENT_3D ( 'NONE', #73, #155, #72 ) ;
#281 = APPROVAL ( #64, 'UNSPECIFIED' ) ;
#282 = PERSON_AND_ORGANIZATION ( #294, #89 ) ;
#283 = ORIENTED_EDGE ( 'NONE', *, *, #171, .T. ) ;
#284 =( LENGTH_UNIT ( ) NAMED_UNIT ( * ) SI_UNIT ( $, .METRE. ) );
#285 = CARTESIAN_POINT ( 'NONE',  ( 1.555301434917138711E-18, 0.01270000000000000122, 0.002000000000000002210 ) ) ;
#286 = AXIS2_PLACEMENT_3D ( 'NONE', #196, #255, #218 ) ;
#287 = CC_DESIGN_PERSON_AND_ORGANIZATION_ASSIGNMENT ( #9, #172, ( #213 ) ) ;
#288 = CYLINDRICAL_SURFACE ( 'NONE', #286, 0.01270000000000000122 ) ;
#289 = ORIENTED_EDGE ( 'NONE', *, *, #251, .T. ) ;
#290 = CARTESIAN_POINT ( 'NONE',  ( 0.000000000000000000, -6.729109296776791962E-19, 0.005663277469135637870 ) ) ;
#291 = DIRECTION ( 'NONE',  ( 0.000000000000000000, 1.836909530733612233E-16, -1.000000000000000000 ) ) ;
#292 = LINE ( 'NONE', #285, #169 ) ;
#293 = DIRECTION ( 'NONE',  ( -0.000000000000000000, -1.836909530733566134E-16, 1.000000000000000000 ) ) ;
#294 = PERSON ( 'UNSPECIFIED', 'UNSPECIFIED', 'UNSPECIFIED', ('UNSPECIFIED'), ('UNSPECIFIED'), ('UNSPECIFIED') ) ;
#295 = EDGE_CURVE ( 'NONE', #312, #274, #216, .T. ) ;
#296 = CIRCLE ( 'NONE', #219, 0.02326599999999999155 ) ;
#297 = VERTEX_POINT ( 'NONE', #44 ) ;
#298 = CARTESIAN_POINT ( 'NONE',  ( 0.000000000000000000, 0.000000000000000000, 0.02526599999999998292 ) ) ;
#299 = AXIS2_PLACEMENT_3D ( 'NONE', #265, #176, #21 ) ;
#300 = DIRECTION ( 'NONE',  ( -0.000000000000000000, -1.836909530733569092E-16, 1.000000000000000000 ) ) ;
#301 = CC_DESIGN_PERSON_AND_ORGANIZATION_ASSIGNMENT ( #152, #157, ( #96 ) ) ;
#302 = DIRECTION ( 'NONE',  ( -1.000000000000000000, 1.224646799147353207E-16, 2.249565377136128279E-32 ) ) ;
#303 = FACE_OUTER_BOUND ( 'NONE', #221, .T. ) ;
#304 = DIRECTION ( 'NONE',  ( 0.000000000000000000, 1.000000000000000000, 1.491209039780630702E-16 ) ) ;
#305 = DIRECTION ( 'NONE',  ( 1.000000000000000000, -1.224646799147353207E-16, -2.249565377136128279E-32 ) ) ;
#306 = LOCAL_TIME ( 11, 56, 9.000000000000000000, #197 ) ;
#307 = DATE_AND_TIME ( #160, #142 ) ;
#308 = ADVANCED_FACE ( 'NONE', ( #192 ), #36, .T. ) ;
#309 = EDGE_LOOP ( 'NONE', ( #51, #289, #37, #183 ) ) ;
#310 = AXIS2_PLACEMENT_3D ( 'NONE', #137, #107, #132 ) ;
#311 = APPROVAL ( #10, 'UNSPECIFIED' ) ;
#312 = VERTEX_POINT ( 'NONE', #167 ) ;
#313 = DIRECTION ( 'NONE',  ( -0.000000000000000000, -1.836909530733569092E-16, 1.000000000000000000 ) ) ;
#314 = CARTESIAN_POINT ( 'NONE',  ( 0.000000000000000000, 3.600842784527123390E-18, 0.005663277469135637870 ) ) ;
#315 = PERSON_AND_ORGANIZATION_ROLE ( 'creator' ) ;
#316 = CONICAL_SURFACE ( 'NONE', #272, 0.01253156117081758412, 1.074106296354250922 ) ;
#317 = EDGE_CURVE ( 'NONE', #70, #143, #112, .T. ) ;
#318 = FACE_OUTER_BOUND ( 'NONE', #229, .T. ) ;
#319 = CARTESIAN_POINT ( 'NONE',  ( 0.000000000000000000, -6.729109296776791962E-19, 0.005663277469135637870 ) ) ;
#320 = DIRECTION ( 'NONE',  ( -0.000000000000000000, -1.836909530733566134E-16, 1.000000000000000000 ) ) ;
#321 = AXIS2_PLACEMENT_3D ( 'NONE', #314, #262, #65 ) ;
#322 = CC_DESIGN_PERSON_AND_ORGANIZATION_ASSIGNMENT ( #282, #315, ( #213 ) ) ;
#323 = CONICAL_SURFACE ( 'NONE', #163, 0.01253156117081758412, 1.074106296354250922 ) ;
#324 = EDGE_LOOP ( 'NONE', ( #279, #268, #13 ) ) ;
#325 = DIRECTION ( 'NONE',  ( -0.000000000000000000, -1.836909530733569092E-16, 1.000000000000000000 ) ) ;
#326 = DIRECTION ( 'NONE',  ( -0.000000000000000000, -1.836909530733566134E-16, 1.000000000000000000 ) ) ;
#327 = SHAPE_DEFINITION_REPRESENTATION ( #126, #269 ) ;
ENDSEC;
END-ISO-10303-21;
