ISO-10303-21;
HEADER;
FILE_DESCRIPTION (( 'STEP AP214' ),
    '1' );
FILE_NAME ('4904-E0W.step',
    '2007-11-09T02:06:40',
    ( ' ' ),
    ( ' ' ),
    'SwSTEP 2.0',
    'SolidWorks 2007',
    '' );
FILE_SCHEMA (( 'AUTOMOTIVE_DESIGN' ));
ENDSEC;

DATA;
#1 = PRODUCT_CONTEXT ( 'NONE', #3, 'mechanical' ) ;
#2 = APPLICATION_PROTOCOL_DEFINITION ( 'draft international standard', 'automotive_design', 1998, #3 ) ;
#3 = APPLICATION_CONTEXT ( 'automotive_design' ) ;
#4 = PRODUCT ( '4904-E0W', '4904-E0W', '', ( #1 ) ) ;
#5 = PRODUCT_DEFINITION_FORMATION_WITH_SPECIFIED_SOURCE ( 'ANY', '', #4, .NOT_KNOWN. ) ;
#6 = PRODUCT_DEFINITION ( 'UNKNOWN', '', #5, #8 ) ;
#7 = APPLICATION_PROTOCOL_DEFINITION ( 'draft international standard', 'automotive_design', 1998, #9 ) ;
#8 = PRODUCT_DEFINITION_CONTEXT ( 'detailed design', #9, 'design' ) ;
#9 = APPLICATION_CONTEXT ( 'automotive_design' ) ;
#10 = PRODUCT_RELATED_PRODUCT_CATEGORY ( 'part', '', ( #4 ) ) ;
#11 = ORIENTED_EDGE ( 'NONE', *, *, #12, .F. ) ;
#12 = EDGE_CURVE ( 'NONE', #13, #69, #105, .T. ) ;
#13 = VERTEX_POINT ( 'NONE', #100 ) ;
#14 = EDGE_CURVE ( 'NONE', #35, #15, #99, .T. ) ;
#15 = VERTEX_POINT ( 'NONE', #94 ) ;
#16 = ORIENTED_EDGE ( 'NONE', *, *, #17, .F. ) ;
#17 = EDGE_CURVE ( 'NONE', #18, #15, #93, .T. ) ;
#18 = VERTEX_POINT ( 'NONE', #88 ) ;
#19 = ORIENTED_EDGE ( 'NONE', *, *, #20, .F. ) ;
#20 = EDGE_CURVE ( 'NONE', #36, #18, #86, .T. ) ;
#21 = ADVANCED_FACE ( 'NONE', ( #87 ), #113, .T. ) ;
#22 = EDGE_LOOP ( 'NONE', ( #23, #26, #27, #67, #70, #73 ) ) ;
#23 = ORIENTED_EDGE ( 'NONE', *, *, #24, .T. ) ;
#24 = EDGE_CURVE ( 'NONE', #25, #36, #109, .T. ) ;
#25 = VERTEX_POINT ( 'NONE', #158 ) ;
#26 = ORIENTED_EDGE ( 'NONE', *, *, #20, .T. ) ;
#27 = ORIENTED_EDGE ( 'NONE', *, *, #28, .T. ) ;
#28 = EDGE_CURVE ( 'NONE', #18, #29, #157, .T. ) ;
#29 = VERTEX_POINT ( 'NONE', #153 ) ;
#30 = MANIFOLD_SOLID_BREP ( 'NONE', #41 ) ;
#31 = ADVANCED_FACE ( 'NONE', ( #134 ), #167, .T. ) ;
#32 = EDGE_LOOP ( 'NONE', ( #33, #37, #16, #19 ) ) ;
#33 = ORIENTED_EDGE ( 'NONE', *, *, #34, .F. ) ;
#34 = EDGE_CURVE ( 'NONE', #35, #36, #163, .T. ) ;
#35 = VERTEX_POINT ( 'NONE', #209 ) ;
#36 = VERTEX_POINT ( 'NONE', #208 ) ;
#37 = ORIENTED_EDGE ( 'NONE', *, *, #14, .T. ) ;
#38 = ORIENTED_EDGE ( 'NONE', *, *, #34, .T. ) ;
#39 = ORIENTED_EDGE ( 'NONE', *, *, #24, .F. ) ;
#40 = ORIENTED_EDGE ( 'NONE', *, *, #46, .F. ) ;
#41 = CLOSED_SHELL ( 'NONE', ( #31, #21, #75, #59, #42, #50 ) ) ;
#42 = ADVANCED_FACE ( 'NONE', ( #207 ), #186, .T. ) ;
#43 = ORIENTED_EDGE ( 'NONE', *, *, #28, .F. ) ;
#44 = ORIENTED_EDGE ( 'NONE', *, *, #17, .T. ) ;
#45 = ORIENTED_EDGE ( 'NONE', *, *, #46, .T. ) ;
#46 = EDGE_CURVE ( 'NONE', #15, #25, #182, .T. ) ;
#47 = ORIENTED_EDGE ( 'NONE', *, *, #74, .T. ) ;
#48 = ORIENTED_EDGE ( 'NONE', *, *, #57, .F. ) ;
#49 = ORIENTED_EDGE ( 'NONE', *, *, #65, .F. ) ;
#50 = ADVANCED_FACE ( 'NONE', ( #232 ), #213, .T. ) ;
#51 = EDGE_LOOP ( 'NONE', ( #52, #38, #39, #40 ) ) ;
#52 = ORIENTED_EDGE ( 'NONE', *, *, #14, .F. ) ;
#53 = ORIENTED_EDGE ( 'NONE', *, *, #54, .T. ) ;
#54 = EDGE_CURVE ( 'NONE', #13, #55, #265, .T. ) ;
#55 = VERTEX_POINT ( 'NONE', #260 ) ;
#56 = ORIENTED_EDGE ( 'NONE', *, *, #57, .T. ) ;
#57 = EDGE_CURVE ( 'NONE', #55, #72, #258, .T. ) ;
#58 = ORIENTED_EDGE ( 'NONE', *, *, #71, .T. ) ;
#59 = ADVANCED_FACE ( 'NONE', ( #259 ), #294, .F. ) ;
#60 = EDGE_LOOP ( 'NONE', ( #61, #62, #63, #64 ) ) ;
#61 = ORIENTED_EDGE ( 'NONE', *, *, #54, .F. ) ;
#62 = ORIENTED_EDGE ( 'NONE', *, *, #12, .T. ) ;
#63 = ORIENTED_EDGE ( 'NONE', *, *, #68, .T. ) ;
#64 = ORIENTED_EDGE ( 'NONE', *, *, #65, .T. ) ;
#65 = EDGE_CURVE ( 'NONE', #29, #55, #290, .T. ) ;
#66 = EDGE_LOOP ( 'NONE', ( #43, #44, #45, #47, #48, #49 ) ) ;
#67 = ORIENTED_EDGE ( 'NONE', *, *, #68, .F. ) ;
#68 = EDGE_CURVE ( 'NONE', #69, #29, #285, .T. ) ;
#69 = VERTEX_POINT ( 'NONE', #280 ) ;
#70 = ORIENTED_EDGE ( 'NONE', *, *, #71, .F. ) ;
#71 = EDGE_CURVE ( 'NONE', #72, #69, #279, .T. ) ;
#72 = VERTEX_POINT ( 'NONE', #274 ) ;
#73 = ORIENTED_EDGE ( 'NONE', *, *, #74, .F. ) ;
#74 = EDGE_CURVE ( 'NONE', #25, #72, #272, .T. ) ;
#75 = ADVANCED_FACE ( 'NONE', ( #268 ), #303, .F. ) ;
#76 = EDGE_LOOP ( 'NONE', ( #11, #53, #56, #58 ) ) ;
#77 = SURFACE_SIDE_STYLE ('',( #78 ) ) ;
#78 = SURFACE_STYLE_FILL_AREA ( #79 ) ;
#79 = FILL_AREA_STYLE ('',( #80 ) ) ;
#80 = FILL_AREA_STYLE_COLOUR ( '', #81 ) ;
#81 = COLOUR_RGB ( '',0.7529411764705882200, 0.7529411764705882200, 0.7529411764705882200 ) ;
#82 = DIRECTION ( 'NONE',  ( 0.0000000000000000000, 0.0000000000000000000, -1.000000000000000000 ) ) ;
#83 = DIRECTION ( 'NONE',  ( 1.000000000000000000, 0.0000000000000000000, 0.0000000000000000000 ) ) ;
#84 = CARTESIAN_POINT ( 'NONE',  ( -3.500350514758588700, 1.358932922870714100, 0.8722530675037537500 ) ) ;
#85 = AXIS2_PLACEMENT_3D ( 'NONE', #84, #83, #82 ) ;
#86 = CIRCLE ( 'NONE', #85, 1.000000000000003100 ) ;
#87 = FACE_OUTER_BOUND ( 'NONE', #22, .T. ) ;
#88 = CARTESIAN_POINT ( 'NONE',  ( -3.500350514758588700, 1.358932922870714100, 1.872253067503756800 ) ) ;
#89 = DIRECTION ( 'NONE',  ( 0.0000000000000000000, 0.0000000000000000000, -1.000000000000000000 ) ) ;
#90 = DIRECTION ( 'NONE',  ( 1.000000000000000000, 0.0000000000000000000, 0.0000000000000000000 ) ) ;
#91 = CARTESIAN_POINT ( 'NONE',  ( -3.500350514758588700, 1.358932922870714100, 0.8722530675037537500 ) ) ;
#92 = AXIS2_PLACEMENT_3D ( 'NONE', #91, #90, #89 ) ;
#93 = CIRCLE ( 'NONE', #92, 1.000000000000003100 ) ;
#94 = CARTESIAN_POINT ( 'NONE',  ( -3.500350514758588700, 0.3589329228707050000, 0.8722530675037538600 ) ) ;
#95 = DIRECTION ( 'NONE',  ( 0.0000000000000000000, -1.000000000000000000, 1.249000902703301400E-016 ) ) ;
#96 = DIRECTION ( 'NONE',  ( 0.0000000000000000000, 1.224606353822377300E-016, 1.000000000000000000 ) ) ;
#97 = CARTESIAN_POINT ( 'NONE',  ( 16.15927244707742700, 1.358932922870714100, 0.8722530675037537500 ) ) ;
#98 = AXIS2_PLACEMENT_3D ( 'NONE', #97, #96, #95 ) ;
#99 = CIRCLE ( 'NONE', #98, 19.68503937007873700 ) ;
#100 = CARTESIAN_POINT ( 'NONE',  ( -3.328916529300524300, 1.358932922870714800, 0.8722530675037537500 ) ) ;
#101 = DIRECTION ( 'NONE',  ( -1.000000000000000000, 0.0000000000000000000, 0.0000000000000000000 ) ) ;
#102 = DIRECTION ( 'NONE',  ( 0.0000000000000000000, 0.0000000000000000000, -1.000000000000000000 ) ) ;
#103 = CARTESIAN_POINT ( 'NONE',  ( 6.627776384085303900, 1.358932922870714100, 0.8722530675037537500 ) ) ;
#104 = AXIS2_PLACEMENT_3D ( 'NONE', #103, #102, #101 ) ;
#105 = CIRCLE ( 'NONE', #104, 9.956692913385827700 ) ;
#106 = DIRECTION ( 'NONE',  ( 0.0000000000000000000, 0.0000000000000000000, -1.000000000000000000 ) ) ;
#107 = DIRECTION ( 'NONE',  ( 1.000000000000000000, 0.0000000000000000000, 0.0000000000000000000 ) ) ;
#108 = AXIS2_PLACEMENT_3D ( 'NONE', #114, #107, #106 ) ;
#109 = CIRCLE ( 'NONE', #108, 1.000000000000003100 ) ;
#110 = DIRECTION ( 'NONE',  ( 0.0000000000000000000, 0.0000000000000000000, -1.000000000000000000 ) ) ;
#111 = DIRECTION ( 'NONE',  ( 1.000000000000000000, 0.0000000000000000000, 0.0000000000000000000 ) ) ;
#112 = AXIS2_PLACEMENT_3D ( 'NONE', #115, #111, #110 ) ;
#113 = CYLINDRICAL_SURFACE ( 'NONE', #112, 1.000000000000001600 ) ;
#114 = CARTESIAN_POINT ( 'NONE',  ( -3.500350514758588700, 1.358932922870714100, 0.8722530675037537500 ) ) ;
#115 = CARTESIAN_POINT ( 'NONE',  ( -3.328916529300524300, 1.358932922870714100, 0.8722530675037537500 ) ) ;
#116 =( GEOMETRIC_REPRESENTATION_CONTEXT ( 3 ) GLOBAL_UNCERTAINTY_ASSIGNED_CONTEXT ( ( #117 ) ) GLOBAL_UNIT_ASSIGNED_CONTEXT ( ( #120, #119, #118 ) ) REPRESENTATION_CONTEXT ( 'NONE', 'WORKASPACE' ) );
#117 = UNCERTAINTY_MEASURE_WITH_UNIT (LENGTH_MEASURE( 1.000000000000000100E-005 ), #120, 'distance_accuracy_value', 'NONE');
#118 =( NAMED_UNIT ( * ) SI_UNIT ( $, .STERADIAN. ) SOLID_ANGLE_UNIT ( ) );
#119 =( NAMED_UNIT ( * ) PLANE_ANGLE_UNIT ( ) SI_UNIT ( $, .RADIAN. ) );
#120 =( CONVERSION_BASED_UNIT ( 'INCH', #121 ) LENGTH_UNIT ( ) NAMED_UNIT ( #122 ) );
#121 = LENGTH_MEASURE_WITH_UNIT ( LENGTH_MEASURE( 0.02539999999999999900 ), #123 );
#122 = DIMENSIONAL_EXPONENTS ( 1.000000000000000000, 0.0000000000000000000, 0.0000000000000000000, 0.0000000000000000000, 0.0000000000000000000, 0.0000000000000000000, 0.0000000000000000000 ) ;
#123 =( LENGTH_UNIT ( ) NAMED_UNIT ( * ) SI_UNIT ( $, .METRE. ) );
#124 = MECHANICAL_DESIGN_GEOMETRIC_PRESENTATION_REPRESENTATION (  '', ( #126 ), #116 ) ;
#125 = PRESENTATION_LAYER_ASSIGNMENT (  '', '', ( #126 ) ) ;
#126 = STYLED_ITEM ( 'NONE', ( #127 ), #21 ) ;
#127 = PRESENTATION_STYLE_ASSIGNMENT (( #128 ) ) ;
#128 = SURFACE_STYLE_USAGE ( .BOTH. , #77 ) ;
#129 = SURFACE_SIDE_STYLE ('',( #130 ) ) ;
#130 = SURFACE_STYLE_FILL_AREA ( #131 ) ;
#131 = FILL_AREA_STYLE ('',( #132 ) ) ;
#132 = FILL_AREA_STYLE_COLOUR ( '', #133 ) ;
#133 = COLOUR_RGB ( '',0.7529411764705882200, 0.7529411764705882200, 0.7529411764705882200 ) ;
#134 = FACE_OUTER_BOUND ( 'NONE', #32, .T. ) ;
#135 =( GEOMETRIC_REPRESENTATION_CONTEXT ( 3 ) GLOBAL_UNCERTAINTY_ASSIGNED_CONTEXT ( ( #136 ) ) GLOBAL_UNIT_ASSIGNED_CONTEXT ( ( #139, #138, #137 ) ) REPRESENTATION_CONTEXT ( 'NONE', 'WORKASPACE' ) );
#136 = UNCERTAINTY_MEASURE_WITH_UNIT (LENGTH_MEASURE( 1.000000000000000100E-005 ), #139, 'distance_accuracy_value', 'NONE');
#137 =( NAMED_UNIT ( * ) SI_UNIT ( $, .STERADIAN. ) SOLID_ANGLE_UNIT ( ) );
#138 =( NAMED_UNIT ( * ) PLANE_ANGLE_UNIT ( ) SI_UNIT ( $, .RADIAN. ) );
#139 =( CONVERSION_BASED_UNIT ( 'INCH', #140 ) LENGTH_UNIT ( ) NAMED_UNIT ( #141 ) );
#140 = LENGTH_MEASURE_WITH_UNIT ( LENGTH_MEASURE( 0.02539999999999999900 ), #142 );
#141 = DIMENSIONAL_EXPONENTS ( 1.000000000000000000, 0.0000000000000000000, 0.0000000000000000000, 0.0000000000000000000, 0.0000000000000000000, 0.0000000000000000000, 0.0000000000000000000 ) ;
#142 =( LENGTH_UNIT ( ) NAMED_UNIT ( * ) SI_UNIT ( $, .METRE. ) );
#143 = MECHANICAL_DESIGN_GEOMETRIC_PRESENTATION_REPRESENTATION (  '', ( #145 ), #135 ) ;
#144 = PRESENTATION_LAYER_ASSIGNMENT (  '', '', ( #145 ) ) ;
#145 = STYLED_ITEM ( 'NONE', ( #146 ), #30 ) ;
#146 = PRESENTATION_STYLE_ASSIGNMENT (( #147 ) ) ;
#147 = SURFACE_STYLE_USAGE ( .BOTH. , #148 ) ;
#148 = SURFACE_SIDE_STYLE ('',( #149 ) ) ;
#149 = SURFACE_STYLE_FILL_AREA ( #150 ) ;
#150 = FILL_AREA_STYLE ('',( #151 ) ) ;
#151 = FILL_AREA_STYLE_COLOUR ( '', #152 ) ;
#152 = COLOUR_RGB ( '',0.7529411764705882200, 0.7529411764705882200, 0.7529411764705882200 ) ;
#153 = CARTESIAN_POINT ( 'NONE',  ( -3.278571771086084200, 1.358932922870714100, 1.872253067503753600 ) ) ;
#154 = DIRECTION ( 'NONE',  ( 1.000000000000000000, 0.0000000000000000000, 0.0000000000000000000 ) ) ;
#155 = VECTOR ( 'NONE', #154, 39.37007874015748100 ) ;
#156 = CARTESIAN_POINT ( 'NONE',  ( -3.328916529300524300, 1.358932922870714100, 1.872253067503755400 ) ) ;
#157 = LINE ( 'NONE', #156, #155 ) ;
#158 = CARTESIAN_POINT ( 'NONE',  ( -3.500350514758588700, 1.358932922870714100, -0.1277469324962494400 ) ) ;
#159 = DIRECTION ( 'NONE',  ( -1.000000000000000000, 0.0000000000000000000, 0.0000000000000000000 ) ) ;
#160 = DIRECTION ( 'NONE',  ( 0.0000000000000000000, 0.0000000000000000000, -1.000000000000000000 ) ) ;
#161 = CARTESIAN_POINT ( 'NONE',  ( 16.15927244707742700, 1.358932922870714100, 0.8722530675037537500 ) ) ;
#162 = AXIS2_PLACEMENT_3D ( 'NONE', #161, #160, #159 ) ;
#163 = CIRCLE ( 'NONE', #162, 19.68503937007873700 ) ;
#164 = DIRECTION ( 'NONE',  ( 0.0000000000000000000, 1.000000000000000000, 0.0000000000000000000 ) ) ;
#165 = DIRECTION ( 'NONE',  ( 0.0000000000000000000, 0.0000000000000000000, 1.000000000000000000 ) ) ;
#166 = AXIS2_PLACEMENT_3D ( 'NONE', #168, #165, #164 ) ;
#167 = SPHERICAL_SURFACE ( 'NONE', #166, 19.68503937007873700 ) ;
#168 = CARTESIAN_POINT ( 'NONE',  ( 16.15927244707742700, 1.358932922870714100, 0.8722530675037537500 ) ) ;
#169 =( GEOMETRIC_REPRESENTATION_CONTEXT ( 3 ) GLOBAL_UNCERTAINTY_ASSIGNED_CONTEXT ( ( #170 ) ) GLOBAL_UNIT_ASSIGNED_CONTEXT ( ( #173, #172, #171 ) ) REPRESENTATION_CONTEXT ( 'NONE', 'WORKASPACE' ) );
#170 = UNCERTAINTY_MEASURE_WITH_UNIT (LENGTH_MEASURE( 1.000000000000000100E-005 ), #173, 'distance_accuracy_value', 'NONE');
#171 =( NAMED_UNIT ( * ) SI_UNIT ( $, .STERADIAN. ) SOLID_ANGLE_UNIT ( ) );
#172 =( NAMED_UNIT ( * ) PLANE_ANGLE_UNIT ( ) SI_UNIT ( $, .RADIAN. ) );
#173 =( CONVERSION_BASED_UNIT ( 'INCH', #174 ) LENGTH_UNIT ( ) NAMED_UNIT ( #175 ) );
#174 = LENGTH_MEASURE_WITH_UNIT ( LENGTH_MEASURE( 0.02539999999999999900 ), #176 );
#175 = DIMENSIONAL_EXPONENTS ( 1.000000000000000000, 0.0000000000000000000, 0.0000000000000000000, 0.0000000000000000000, 0.0000000000000000000, 0.0000000000000000000, 0.0000000000000000000 ) ;
#176 =( LENGTH_UNIT ( ) NAMED_UNIT ( * ) SI_UNIT ( $, .METRE. ) );
#177 = MECHANICAL_DESIGN_GEOMETRIC_PRESENTATION_REPRESENTATION (  '', ( #179 ), #169 ) ;
#178 = PRESENTATION_LAYER_ASSIGNMENT (  '', '', ( #179 ) ) ;
#179 = STYLED_ITEM ( 'NONE', ( #180 ), #31 ) ;
#180 = PRESENTATION_STYLE_ASSIGNMENT (( #181 ) ) ;
#181 = SURFACE_STYLE_USAGE ( .BOTH. , #129 ) ;
#182 = CIRCLE ( 'NONE', #235, 1.000000000000003100 ) ;
#183 = DIRECTION ( 'NONE',  ( 0.0000000000000000000, 0.0000000000000000000, -1.000000000000000000 ) ) ;
#184 = DIRECTION ( 'NONE',  ( 1.000000000000000000, 0.0000000000000000000, 0.0000000000000000000 ) ) ;
#185 = AXIS2_PLACEMENT_3D ( 'NONE', #188, #184, #183 ) ;
#186 = CYLINDRICAL_SURFACE ( 'NONE', #185, 1.000000000000001600 ) ;
#187 = CARTESIAN_POINT ( 'NONE',  ( -3.500350514758588700, 1.358932922870714100, 0.8722530675037537500 ) ) ;
#188 = CARTESIAN_POINT ( 'NONE',  ( -3.328916529300524300, 1.358932922870714100, 0.8722530675037537500 ) ) ;
#189 =( GEOMETRIC_REPRESENTATION_CONTEXT ( 3 ) GLOBAL_UNCERTAINTY_ASSIGNED_CONTEXT ( ( #190 ) ) GLOBAL_UNIT_ASSIGNED_CONTEXT ( ( #193, #192, #191 ) ) REPRESENTATION_CONTEXT ( 'NONE', 'WORKASPACE' ) );
#190 = UNCERTAINTY_MEASURE_WITH_UNIT (LENGTH_MEASURE( 1.000000000000000100E-005 ), #193, 'distance_accuracy_value', 'NONE');
#191 =( NAMED_UNIT ( * ) SI_UNIT ( $, .STERADIAN. ) SOLID_ANGLE_UNIT ( ) );
#192 =( NAMED_UNIT ( * ) PLANE_ANGLE_UNIT ( ) SI_UNIT ( $, .RADIAN. ) );
#193 =( CONVERSION_BASED_UNIT ( 'INCH', #194 ) LENGTH_UNIT ( ) NAMED_UNIT ( #195 ) );
#194 = LENGTH_MEASURE_WITH_UNIT ( LENGTH_MEASURE( 0.02539999999999999900 ), #196 );
#195 = DIMENSIONAL_EXPONENTS ( 1.000000000000000000, 0.0000000000000000000, 0.0000000000000000000, 0.0000000000000000000, 0.0000000000000000000, 0.0000000000000000000, 0.0000000000000000000 ) ;
#196 =( LENGTH_UNIT ( ) NAMED_UNIT ( * ) SI_UNIT ( $, .METRE. ) );
#197 = MECHANICAL_DESIGN_GEOMETRIC_PRESENTATION_REPRESENTATION (  '', ( #199 ), #189 ) ;
#198 = PRESENTATION_LAYER_ASSIGNMENT (  '', '', ( #199 ) ) ;
#199 = STYLED_ITEM ( 'NONE', ( #200 ), #42 ) ;
#200 = PRESENTATION_STYLE_ASSIGNMENT (( #201 ) ) ;
#201 = SURFACE_STYLE_USAGE ( .BOTH. , #202 ) ;
#202 = SURFACE_SIDE_STYLE ('',( #203 ) ) ;
#203 = SURFACE_STYLE_FILL_AREA ( #204 ) ;
#204 = FILL_AREA_STYLE ('',( #205 ) ) ;
#205 = FILL_AREA_STYLE_COLOUR ( '', #206 ) ;
#206 = COLOUR_RGB ( '',0.7529411764705882200, 0.7529411764705882200, 0.7529411764705882200 ) ;
#207 = FACE_OUTER_BOUND ( 'NONE', #66, .T. ) ;
#208 = CARTESIAN_POINT ( 'NONE',  ( -3.500350514758588700, 2.358932922870723200, 0.8722530675037537500 ) ) ;
#209 = CARTESIAN_POINT ( 'NONE',  ( -3.525766923001311800, 1.358932922870715200, 0.8722530675037537500 ) ) ;
#210 = DIRECTION ( 'NONE',  ( 0.0000000000000000000, 1.000000000000000000, 0.0000000000000000000 ) ) ;
#211 = DIRECTION ( 'NONE',  ( 0.0000000000000000000, 0.0000000000000000000, 1.000000000000000000 ) ) ;
#212 = AXIS2_PLACEMENT_3D ( 'NONE', #214, #211, #210 ) ;
#213 = SPHERICAL_SURFACE ( 'NONE', #212, 19.68503937007873700 ) ;
#214 = CARTESIAN_POINT ( 'NONE',  ( 16.15927244707742700, 1.358932922870714100, 0.8722530675037537500 ) ) ;
#215 =( GEOMETRIC_REPRESENTATION_CONTEXT ( 3 ) GLOBAL_UNCERTAINTY_ASSIGNED_CONTEXT ( ( #216 ) ) GLOBAL_UNIT_ASSIGNED_CONTEXT ( ( #219, #218, #217 ) ) REPRESENTATION_CONTEXT ( 'NONE', 'WORKASPACE' ) );
#216 = UNCERTAINTY_MEASURE_WITH_UNIT (LENGTH_MEASURE( 1.000000000000000100E-005 ), #219, 'distance_accuracy_value', 'NONE');
#217 =( NAMED_UNIT ( * ) SI_UNIT ( $, .STERADIAN. ) SOLID_ANGLE_UNIT ( ) );
#218 =( NAMED_UNIT ( * ) PLANE_ANGLE_UNIT ( ) SI_UNIT ( $, .RADIAN. ) );
#219 =( CONVERSION_BASED_UNIT ( 'INCH', #220 ) LENGTH_UNIT ( ) NAMED_UNIT ( #221 ) );
#220 = LENGTH_MEASURE_WITH_UNIT ( LENGTH_MEASURE( 0.02539999999999999900 ), #222 );
#221 = DIMENSIONAL_EXPONENTS ( 1.000000000000000000, 0.0000000000000000000, 0.0000000000000000000, 0.0000000000000000000, 0.0000000000000000000, 0.0000000000000000000, 0.0000000000000000000 ) ;
#222 =( LENGTH_UNIT ( ) NAMED_UNIT ( * ) SI_UNIT ( $, .METRE. ) );
#223 = MECHANICAL_DESIGN_GEOMETRIC_PRESENTATION_REPRESENTATION (  '', ( #225 ), #215 ) ;
#224 = PRESENTATION_LAYER_ASSIGNMENT (  '', '', ( #225 ) ) ;
#225 = STYLED_ITEM ( 'NONE', ( #226 ), #50 ) ;
#226 = PRESENTATION_STYLE_ASSIGNMENT (( #227 ) ) ;
#227 = SURFACE_STYLE_USAGE ( .BOTH. , #228 ) ;
#228 = SURFACE_SIDE_STYLE ('',( #229 ) ) ;
#229 = SURFACE_STYLE_FILL_AREA ( #230 ) ;
#230 = FILL_AREA_STYLE ('',( #236 ) ) ;
#231 = COLOUR_RGB ( '',0.7529411764705882200, 0.7529411764705882200, 0.7529411764705882200 ) ;
#232 = FACE_OUTER_BOUND ( 'NONE', #51, .T. ) ;
#233 = DIRECTION ( 'NONE',  ( 0.0000000000000000000, 0.0000000000000000000, -1.000000000000000000 ) ) ;
#234 = DIRECTION ( 'NONE',  ( 1.000000000000000000, 0.0000000000000000000, 0.0000000000000000000 ) ) ;
#235 = AXIS2_PLACEMENT_3D ( 'NONE', #187, #234, #233 ) ;
#236 = FILL_AREA_STYLE_COLOUR ( '', #231 ) ;
#237 = UNCERTAINTY_MEASURE_WITH_UNIT (LENGTH_MEASURE( 1.000000000000000100E-005 ), #240, 'distance_accuracy_value', 'NONE');
#238 =( NAMED_UNIT ( * ) SI_UNIT ( $, .STERADIAN. ) SOLID_ANGLE_UNIT ( ) );
#239 =( NAMED_UNIT ( * ) PLANE_ANGLE_UNIT ( ) SI_UNIT ( $, .RADIAN. ) );
#240 =( CONVERSION_BASED_UNIT ( 'INCH', #241 ) LENGTH_UNIT ( ) NAMED_UNIT ( #242 ) );
#241 = LENGTH_MEASURE_WITH_UNIT ( LENGTH_MEASURE( 0.02539999999999999900 ), #243 );
#242 = DIMENSIONAL_EXPONENTS ( 1.000000000000000000, 0.0000000000000000000, 0.0000000000000000000, 0.0000000000000000000, 0.0000000000000000000, 0.0000000000000000000, 0.0000000000000000000 ) ;
#243 =( LENGTH_UNIT ( ) NAMED_UNIT ( * ) SI_UNIT ( $, .METRE. ) );
#244 = MECHANICAL_DESIGN_GEOMETRIC_PRESENTATION_REPRESENTATION (  '', ( #246 ), #296 ) ;
#245 = PRESENTATION_LAYER_ASSIGNMENT (  '', '', ( #246 ) ) ;
#246 = STYLED_ITEM ( 'NONE', ( #247 ), #59 ) ;
#247 = PRESENTATION_STYLE_ASSIGNMENT (( #248 ) ) ;
#248 = SURFACE_STYLE_USAGE ( .BOTH. , #249 ) ;
#249 = SURFACE_SIDE_STYLE ('',( #250 ) ) ;
#250 = SURFACE_STYLE_FILL_AREA ( #251 ) ;
#251 = FILL_AREA_STYLE ('',( #252 ) ) ;
#252 = FILL_AREA_STYLE_COLOUR ( '', #253 ) ;
#253 = COLOUR_RGB ( '',0.7529411764705882200, 0.7529411764705882200, 0.7529411764705882200 ) ;
#254 = DIRECTION ( 'NONE',  ( 0.0000000000000000000, 0.0000000000000000000, -1.000000000000000000 ) ) ;
#255 = DIRECTION ( 'NONE',  ( 1.000000000000000000, 0.0000000000000000000, 0.0000000000000000000 ) ) ;
#256 = CARTESIAN_POINT ( 'NONE',  ( -3.278571771086084200, 1.358932922870714100, 0.8722530675037537500 ) ) ;
#257 = AXIS2_PLACEMENT_3D ( 'NONE', #256, #255, #254 ) ;
#258 = CIRCLE ( 'NONE', #257, 1.000000000000000000 ) ;
#259 = FACE_OUTER_BOUND ( 'NONE', #60, .T. ) ;
#260 = CARTESIAN_POINT ( 'NONE',  ( -3.278571771086084700, 0.3589329228707166500, 0.8722530675037538600 ) ) ;
#261 = DIRECTION ( 'NONE',  ( 0.0000000000000000000, -1.000000000000000000, 1.234678630588474800E-016 ) ) ;
#262 = DIRECTION ( 'NONE',  ( 0.0000000000000000000, 1.224606353822377300E-016, 1.000000000000000000 ) ) ;
#263 = CARTESIAN_POINT ( 'NONE',  ( 6.627776384085303900, 1.358932922870714100, 0.8722530675037537500 ) ) ;
#264 = AXIS2_PLACEMENT_3D ( 'NONE', #263, #262, #261 ) ;
#265 = CIRCLE ( 'NONE', #264, 9.956692913385827700 ) ;
#266 = FILL_AREA_STYLE ('',( #273 ) ) ;
#267 = COLOUR_RGB ( '',0.7529411764705882200, 0.7529411764705882200, 0.7529411764705882200 ) ;
#268 = FACE_OUTER_BOUND ( 'NONE', #76, .T. ) ;
#269 = DIRECTION ( 'NONE',  ( 1.000000000000000000, 0.0000000000000000000, 0.0000000000000000000 ) ) ;
#270 = VECTOR ( 'NONE', #269, 39.37007874015748100 ) ;
#271 = CARTESIAN_POINT ( 'NONE',  ( -3.328916529300524300, 1.358932922870714100, -0.1277469324962479100 ) ) ;
#272 = LINE ( 'NONE', #271, #270 ) ;
#273 = FILL_AREA_STYLE_COLOUR ( '', #267 ) ;
#274 = CARTESIAN_POINT ( 'NONE',  ( -3.278571771086084200, 1.358932922870714100, -0.1277469324962462700 ) ) ;
#275 = DIRECTION ( 'NONE',  ( 0.0000000000000000000, 0.0000000000000000000, -1.000000000000000000 ) ) ;
#276 = DIRECTION ( 'NONE',  ( 1.000000000000000000, 0.0000000000000000000, 0.0000000000000000000 ) ) ;
#277 = CARTESIAN_POINT ( 'NONE',  ( -3.278571771086084200, 1.358932922870714100, 0.8722530675037537500 ) ) ;
#278 = AXIS2_PLACEMENT_3D ( 'NONE', #277, #276, #275 ) ;
#279 = CIRCLE ( 'NONE', #278, 1.000000000000000000 ) ;
#280 = CARTESIAN_POINT ( 'NONE',  ( -3.278571771086084700, 2.358932922870711700, 0.8722530675037537500 ) ) ;
#281 = DIRECTION ( 'NONE',  ( 0.0000000000000000000, 0.0000000000000000000, -1.000000000000000000 ) ) ;
#282 = DIRECTION ( 'NONE',  ( 1.000000000000000000, 0.0000000000000000000, 0.0000000000000000000 ) ) ;
#283 = CARTESIAN_POINT ( 'NONE',  ( -3.278571771086084200, 1.358932922870714100, 0.8722530675037537500 ) ) ;
#284 = AXIS2_PLACEMENT_3D ( 'NONE', #283, #282, #281 ) ;
#285 = CIRCLE ( 'NONE', #284, 1.000000000000000000 ) ;
#286 = DIRECTION ( 'NONE',  ( 0.0000000000000000000, 0.0000000000000000000, -1.000000000000000000 ) ) ;
#287 = DIRECTION ( 'NONE',  ( 1.000000000000000000, 0.0000000000000000000, 0.0000000000000000000 ) ) ;
#288 = CARTESIAN_POINT ( 'NONE',  ( -3.278571771086084200, 1.358932922870714100, 0.8722530675037537500 ) ) ;
#289 = AXIS2_PLACEMENT_3D ( 'NONE', #288, #287, #286 ) ;
#290 = CIRCLE ( 'NONE', #289, 1.000000000000000000 ) ;
#291 = DIRECTION ( 'NONE',  ( 0.0000000000000000000, 1.000000000000000000, 0.0000000000000000000 ) ) ;
#292 = DIRECTION ( 'NONE',  ( 0.0000000000000000000, 0.0000000000000000000, 1.000000000000000000 ) ) ;
#293 = AXIS2_PLACEMENT_3D ( 'NONE', #295, #292, #291 ) ;
#294 = SPHERICAL_SURFACE ( 'NONE', #293, 9.956692913385827700 ) ;
#295 = CARTESIAN_POINT ( 'NONE',  ( 6.627776384085303900, 1.358932922870714100, 0.8722530675037537500 ) ) ;
#296 =( GEOMETRIC_REPRESENTATION_CONTEXT ( 3 ) GLOBAL_UNCERTAINTY_ASSIGNED_CONTEXT ( ( #237 ) ) GLOBAL_UNIT_ASSIGNED_CONTEXT ( ( #240, #239, #238 ) ) REPRESENTATION_CONTEXT ( 'NONE', 'WORKASPACE' ) );
#297 = DIMENSIONAL_EXPONENTS ( 1.000000000000000000, 0.0000000000000000000, 0.0000000000000000000, 0.0000000000000000000, 0.0000000000000000000, 0.0000000000000000000, 0.0000000000000000000 ) ;
#298 =( LENGTH_UNIT ( ) NAMED_UNIT ( * ) SI_UNIT ( $, .METRE. ) );
#299 = DIRECTION ( 'NONE',  ( 0.0000000000000000000, 0.0000000000000000000, 1.000000000000000000 ) ) ;
#300 = DIRECTION ( 'NONE',  ( 0.0000000000000000000, 1.000000000000000000, 0.0000000000000000000 ) ) ;
#301 = DIRECTION ( 'NONE',  ( 0.0000000000000000000, 0.0000000000000000000, 1.000000000000000000 ) ) ;
#302 = AXIS2_PLACEMENT_3D ( 'NONE', #304, #301, #300 ) ;
#303 = SPHERICAL_SURFACE ( 'NONE', #302, 9.956692913385827700 ) ;
#304 = CARTESIAN_POINT ( 'NONE',  ( 6.627776384085303900, 1.358932922870714100, 0.8722530675037537500 ) ) ;
#305 =( GEOMETRIC_REPRESENTATION_CONTEXT ( 3 ) GLOBAL_UNCERTAINTY_ASSIGNED_CONTEXT ( ( #306 ) ) GLOBAL_UNIT_ASSIGNED_CONTEXT ( ( #309, #308, #307 ) ) REPRESENTATION_CONTEXT ( 'NONE', 'WORKASPACE' ) );
#306 = UNCERTAINTY_MEASURE_WITH_UNIT (LENGTH_MEASURE( 1.000000000000000100E-005 ), #309, 'distance_accuracy_value', 'NONE');
#307 =( NAMED_UNIT ( * ) SI_UNIT ( $, .STERADIAN. ) SOLID_ANGLE_UNIT ( ) );
#308 =( NAMED_UNIT ( * ) PLANE_ANGLE_UNIT ( ) SI_UNIT ( $, .RADIAN. ) );
#309 =( CONVERSION_BASED_UNIT ( 'INCH', #310 ) LENGTH_UNIT ( ) NAMED_UNIT ( #311 ) );
#310 = LENGTH_MEASURE_WITH_UNIT ( LENGTH_MEASURE( 0.02539999999999999900 ), #312 );
#311 = DIMENSIONAL_EXPONENTS ( 1.000000000000000000, 0.0000000000000000000, 0.0000000000000000000, 0.0000000000000000000, 0.0000000000000000000, 0.0000000000000000000, 0.0000000000000000000 ) ;
#312 =( LENGTH_UNIT ( ) NAMED_UNIT ( * ) SI_UNIT ( $, .METRE. ) );
#313 = MECHANICAL_DESIGN_GEOMETRIC_PRESENTATION_REPRESENTATION (  '', ( #315 ), #305 ) ;
#314 = PRESENTATION_LAYER_ASSIGNMENT (  '', '', ( #315 ) ) ;
#315 = STYLED_ITEM ( 'NONE', ( #316 ), #75 ) ;
#316 = PRESENTATION_STYLE_ASSIGNMENT (( #317 ) ) ;
#317 = SURFACE_STYLE_USAGE ( .BOTH. , #318 ) ;
#318 = SURFACE_SIDE_STYLE ('',( #319 ) ) ;
#319 = SURFACE_STYLE_FILL_AREA ( #266 ) ;
#320 = PRODUCT_DEFINITION_SHAPE ( 'NONE', 'NONE',  #6 ) ;
#321 = DIRECTION ( 'NONE',  ( 1.000000000000000000, 0.0000000000000000000, 0.0000000000000000000 ) ) ;
#322 = CARTESIAN_POINT ( 'NONE',  ( 0.0000000000000000000, 0.0000000000000000000, 0.0000000000000000000 ) ) ;
#323 = AXIS2_PLACEMENT_3D ( 'NONE', #322, #299, #321 ) ;
#324 = SHAPE_DEFINITION_REPRESENTATION ( #320, #325 ) ;
#325 = ADVANCED_BREP_SHAPE_REPRESENTATION ( '4904-E0W', ( #30, #323 ), #326 ) ;
#326 =( GEOMETRIC_REPRESENTATION_CONTEXT ( 3 ) GLOBAL_UNCERTAINTY_ASSIGNED_CONTEXT ( ( #327 ) ) GLOBAL_UNIT_ASSIGNED_CONTEXT ( ( #330, #329, #328 ) ) REPRESENTATION_CONTEXT ( 'NONE', 'WORKASPACE' ) );
#327 = UNCERTAINTY_MEASURE_WITH_UNIT (LENGTH_MEASURE( 1.000000000000000100E-005 ), #330, 'distance_accuracy_value', 'NONE');
#328 =( NAMED_UNIT ( * ) SI_UNIT ( $, .STERADIAN. ) SOLID_ANGLE_UNIT ( ) );
#329 =( NAMED_UNIT ( * ) PLANE_ANGLE_UNIT ( ) SI_UNIT ( $, .RADIAN. ) );
#330 =( CONVERSION_BASED_UNIT ( 'INCH', #331 ) LENGTH_UNIT ( ) NAMED_UNIT ( #297 ) );
#331 = LENGTH_MEASURE_WITH_UNIT ( LENGTH_MEASURE( 0.02539999999999999900 ), #298 );
ENDSEC;
END-ISO-10303-21;
