ISO-10303-21;
HEADER;
FILE_DESCRIPTION (( 'STEP AP203' ),
    '1' );
FILE_NAME ('Web Model 11896_11896.step',
    '2019-04-22T14:54:37',
    ( '' ),
    ( '' ),
    'SwSTEP 2.0',
    'SolidWorks 2018',
    '' );
FILE_SCHEMA (( 'CONFIG_CONTROL_DESIGN' ));
ENDSEC;

DATA;
#1 = ORIENTED_EDGE ( 'NONE', *, *, #77, .T. ) ;
#2 = APPROVAL_STATUS ( 'not_yet_approved' ) ;
#3 = EDGE_CURVE ( 'NONE', #71, #148, #67, .T. ) ;
#4 = DATE_AND_TIME ( #39, #142 ) ;
#5 = ORIENTED_EDGE ( 'NONE', *, *, #3, .F. ) ;
#6 = AXIS2_PLACEMENT_3D ( 'NONE', #146, #134, #72 ) ;
#7 = ORIENTED_EDGE ( 'NONE', *, *, #64, .T. ) ;
#8 = CC_DESIGN_PERSON_AND_ORGANIZATION_ASSIGNMENT ( #85, #59, ( #69 ) ) ;
#9 = CC_DESIGN_SECURITY_CLASSIFICATION ( #126, ( #69 ) ) ;
#10 = DIRECTION ( 'NONE',  ( 0.0000000000000000000, 0.0000000000000000000, 1.000000000000000000 ) ) ;
#11 = AXIS2_PLACEMENT_3D ( 'NONE', #141, #153, #173 ) ;
#12 = DIRECTION ( 'NONE',  ( 0.0000000000000000000, 0.0000000000000000000, 1.000000000000000000 ) ) ;
#13 = APPROVAL_PERSON_ORGANIZATION ( #65, #34, #160 ) ;
#14 = EDGE_LOOP ( 'NONE', ( #1, #37, #139, #133 ) ) ;
#15 = CALENDAR_DATE ( 2019, 22, 4 ) ;
#16 = MECHANICAL_CONTEXT ( 'NONE', #57, 'mechanical' ) ;
#17 = APPROVAL ( #155, 'UNSPECIFIED' ) ;
#18 = PERSON_AND_ORGANIZATION_ROLE ( 'creator' ) ;
#19 = ADVANCED_FACE ( 'NONE', ( #106 ), #80, .T. ) ;
#20 = DATE_AND_TIME ( #75, #136 ) ;
#21 = APPROVAL_PERSON_ORGANIZATION ( #95, #17, #98 ) ;
#22 = PERSON ( 'UNSPECIFIED', 'UNSPECIFIED', 'UNSPECIFIED', ('UNSPECIFIED'), ('UNSPECIFIED'), ('UNSPECIFIED') ) ;
#23 = CIRCLE ( 'NONE', #138, 6.249999999999998224 ) ;
#24 = PRODUCT_DEFINITION ( 'UNKNOWN', '', #69, #164 ) ;
#25 = PERSON_AND_ORGANIZATION ( #22, #154 ) ;
#26 = COORDINATED_UNIVERSAL_TIME_OFFSET ( 5, 0, .BEHIND. ) ;
#27 = CARTESIAN_POINT ( 'NONE',  ( 0.0000000000000000000, 0.0000000000000000000, 0.0000000000000000000 ) ) ;
#28 = DIRECTION ( 'NONE',  ( 0.0000000000000000000, 0.0000000000000000000, 1.000000000000000000 ) ) ;
#29 = CARTESIAN_POINT ( 'NONE',  ( 0.0000000000000000000, 0.0000000000000000000, -1.500000000000000000 ) ) ;
#30 = VECTOR ( 'NONE', #12, 1000.000000000000000 ) ;
#31 = ORIENTED_EDGE ( 'NONE', *, *, #78, .T. ) ;
#32 = DIRECTION ( 'NONE',  ( 1.000000000000000000, 0.0000000000000000000, 0.0000000000000000000 ) ) ;
#33 = CC_DESIGN_PERSON_AND_ORGANIZATION_ASSIGNMENT ( #61, #144, ( #24 ) ) ;
#34 = APPROVAL ( #2, 'UNSPECIFIED' ) ;
#35 = MANIFOLD_SOLID_BREP ( '47193-1-solid1', #104 ) ;
#36 = AXIS2_PLACEMENT_3D ( 'NONE', #29, #110, #89 ) ;
#37 = ORIENTED_EDGE ( 'NONE', *, *, #3, .T. ) ;
#38 = APPROVAL ( #130, 'UNSPECIFIED' ) ;
#39 = CALENDAR_DATE ( 2019, 22, 4 ) ;
#40 = DATE_TIME_ROLE ( 'classification_date' ) ;
#41 = CC_DESIGN_APPROVAL ( #34, ( #24 ) ) ;
#42 = PLANE ( 'NONE',  #84 ) ;
#43 =( LENGTH_UNIT ( ) NAMED_UNIT ( * ) SI_UNIT ( .MILLI., .METRE. ) );
#44 = ORIENTED_EDGE ( 'NONE', *, *, #64, .F. ) ;
#45 = APPLICATION_CONTEXT ( 'configuration controlled 3d designs of mechanical parts and assemblies' ) ;
#46 = DIRECTION ( 'NONE',  ( 1.000000000000000000, 0.0000000000000000000, -0.0000000000000000000 ) ) ;
#47 = APPROVAL_DATE_TIME ( #123, #34 ) ;
#48 = UNCERTAINTY_MEASURE_WITH_UNIT (LENGTH_MEASURE( 1.000000000000000082E-05 ), #43, 'distance_accuracy_value', 'NONE');
#49 = PERSON_AND_ORGANIZATION ( #22, #154 ) ;
#50 = AXIS2_PLACEMENT_3D ( 'NONE', #27, #99, #32 ) ;
#51 = CYLINDRICAL_SURFACE ( 'NONE', #11, 6.249999999999998224 ) ;
#52 = EDGE_CURVE ( 'NONE', #148, #129, #97, .T. ) ;
#53 = CC_DESIGN_DATE_AND_TIME_ASSIGNMENT ( #4, #100, ( #24 ) ) ;
#54 = PERSON_AND_ORGANIZATION ( #22, #154 ) ;
#55 = CALENDAR_DATE ( 2019, 22, 4 ) ;
#56 = FACE_OUTER_BOUND ( 'NONE', #14, .T. ) ;
#57 = APPLICATION_CONTEXT ( 'configuration controlled 3d designs of mechanical parts and assemblies' ) ;
#58 = CC_DESIGN_PERSON_AND_ORGANIZATION_ASSIGNMENT ( #152, #18, ( #69 ) ) ;
#59 = PERSON_AND_ORGANIZATION_ROLE ( 'design_supplier' ) ;
#60 = COORDINATED_UNIVERSAL_TIME_OFFSET ( 5, 0, .BEHIND. ) ;
#61 = PERSON_AND_ORGANIZATION ( #22, #154 ) ;
#62 = FACE_OUTER_BOUND ( 'NONE', #165, .T. ) ;
#63 = DIRECTION ( 'NONE',  ( 0.0000000000000000000, 0.0000000000000000000, 1.000000000000000000 ) ) ;
#64 = EDGE_CURVE ( 'NONE', #71, #174, #23, .T. ) ;
#65 = PERSON_AND_ORGANIZATION ( #22, #154 ) ;
#66 = PRODUCT_RELATED_PRODUCT_CATEGORY ( 'detail', '', ( #92 ) ) ;
#67 = LINE ( 'NONE', #79, #128 ) ;
#68 = APPROVAL_ROLE ( '' ) ;
#69 = PRODUCT_DEFINITION_FORMATION_WITH_SPECIFIED_SOURCE ( 'ANY', '', #92, .NOT_KNOWN. ) ;
#70 = APPLICATION_PROTOCOL_DEFINITION ( 'international standard', 'config_control_design', 1994, #45 ) ;
#71 = VERTEX_POINT ( 'NONE', #116 ) ;
#72 = DIRECTION ( 'NONE',  ( 1.000000000000000000, 0.0000000000000000000, 0.0000000000000000000 ) ) ;
#73 = ADVANCED_FACE ( 'NONE', ( #94 ), #51, .T. ) ;
#74 = ADVANCED_BREP_SHAPE_REPRESENTATION ( 'Web Model 11896_11896', ( #35, #6 ), #137 ) ;
#75 = CALENDAR_DATE ( 2019, 22, 4 ) ;
#76 = ORIENTED_EDGE ( 'NONE', *, *, #77, .F. ) ;
#77 = EDGE_CURVE ( 'NONE', #174, #71, #156, .T. ) ;
#78 = EDGE_CURVE ( 'NONE', #129, #148, #169, .T. ) ;
#79 = CARTESIAN_POINT ( 'NONE',  ( -6.249999999999998224, 7.654042494670955634E-16, -1.500000000000000000 ) ) ;
#80 = PLANE ( 'NONE',  #91 ) ;
#81 = CARTESIAN_POINT ( 'NONE',  ( 0.0000000000000000000, 0.0000000000000000000, 0.0000000000000000000 ) ) ;
#82 = SHAPE_DEFINITION_REPRESENTATION ( #93, #74 ) ;
#83 = CARTESIAN_POINT ( 'NONE',  ( 0.0000000000000000000, 0.0000000000000000000, -1.500000000000000000 ) ) ;
#84 = AXIS2_PLACEMENT_3D ( 'NONE', #122, #28, #46 ) ;
#85 = PERSON_AND_ORGANIZATION ( #22, #154 ) ;
#86 = APPROVAL_DATE_TIME ( #150, #17 ) ;
#87 =( NAMED_UNIT ( * ) PLANE_ANGLE_UNIT ( ) SI_UNIT ( $, .RADIAN. ) );
#88 = DIRECTION ( 'NONE',  ( 0.0000000000000000000, 0.0000000000000000000, 1.000000000000000000 ) ) ;
#89 = DIRECTION ( 'NONE',  ( 1.000000000000000000, 0.0000000000000000000, 0.0000000000000000000 ) ) ;
#90 = ORIENTED_EDGE ( 'NONE', *, *, #113, .T. ) ;
#91 = AXIS2_PLACEMENT_3D ( 'NONE', #81, #10, #108 ) ;
#92 = PRODUCT ( 'Web Model 11896_11896', 'Web Model 11896_11896', '', ( #16 ) ) ;
#93 = PRODUCT_DEFINITION_SHAPE ( 'NONE', 'NONE',  #24 ) ;
#94 = FACE_OUTER_BOUND ( 'NONE', #107, .T. ) ;
#95 = PERSON_AND_ORGANIZATION ( #22, #154 ) ;
#96 = DIRECTION ( 'NONE',  ( 1.000000000000000000, 0.0000000000000000000, 0.0000000000000000000 ) ) ;
#97 = CIRCLE ( 'NONE', #131, 6.249999999999998224 ) ;
#98 = APPROVAL_ROLE ( '' ) ;
#99 = DIRECTION ( 'NONE',  ( 0.0000000000000000000, 0.0000000000000000000, 1.000000000000000000 ) ) ;
#100 = DATE_TIME_ROLE ( 'creation_date' ) ;
#101 = CYLINDRICAL_SURFACE ( 'NONE', #124, 6.249999999999998224 ) ;
#102 =( NAMED_UNIT ( * ) SI_UNIT ( $, .STERADIAN. ) SOLID_ANGLE_UNIT ( ) );
#103 = CC_DESIGN_PERSON_AND_ORGANIZATION_ASSIGNMENT ( #49, #117, ( #126 ) ) ;
#104 = CLOSED_SHELL ( 'NONE', ( #149, #73, #111, #19 ) ) ;
#105 = APPROVAL_DATE_TIME ( #20, #38 ) ;
#106 = FACE_OUTER_BOUND ( 'NONE', #171, .T. ) ;
#107 = EDGE_LOOP ( 'NONE', ( #5, #7, #90, #158 ) ) ;
#108 = DIRECTION ( 'NONE',  ( 1.000000000000000000, 0.0000000000000000000, -0.0000000000000000000 ) ) ;
#109 = CARTESIAN_POINT ( 'NONE',  ( 0.0000000000000000000, 0.0000000000000000000, -1.500000000000000000 ) ) ;
#110 = DIRECTION ( 'NONE',  ( 0.0000000000000000000, 0.0000000000000000000, 1.000000000000000000 ) ) ;
#111 = ADVANCED_FACE ( 'NONE', ( #62 ), #42, .F. ) ;
#112 = APPROVAL_PERSON_ORGANIZATION ( #54, #38, #68 ) ;
#113 = EDGE_CURVE ( 'NONE', #174, #129, #127, .T. ) ;
#114 = COORDINATED_UNIVERSAL_TIME_OFFSET ( 5, 0, .BEHIND. ) ;
#115 = DIRECTION ( 'NONE',  ( 0.0000000000000000000, 0.0000000000000000000, 1.000000000000000000 ) ) ;
#116 = CARTESIAN_POINT ( 'NONE',  ( -6.249999999999998224, 7.654042494670955634E-16, -1.500000000000000000 ) ) ;
#117 = PERSON_AND_ORGANIZATION_ROLE ( 'classification_officer' ) ;
#118 = CALENDAR_DATE ( 2019, 22, 4 ) ;
#119 = CARTESIAN_POINT ( 'NONE',  ( 6.249999999999998224, 0.0000000000000000000, -1.500000000000000000 ) ) ;
#120 = LOCAL_TIME ( 10, 54, 37.00000000000000000, #114 ) ;
#121 = PERSON_AND_ORGANIZATION_ROLE ( 'design_owner' ) ;
#122 = CARTESIAN_POINT ( 'NONE',  ( 0.0000000000000000000, 0.0000000000000000000, -1.500000000000000000 ) ) ;
#123 = DATE_AND_TIME ( #118, #135 ) ;
#124 = AXIS2_PLACEMENT_3D ( 'NONE', #109, #88, #145 ) ;
#125 = DIRECTION ( 'NONE',  ( 1.000000000000000000, 0.0000000000000000000, 0.0000000000000000000 ) ) ;
#126 = SECURITY_CLASSIFICATION ( '', '', #147 ) ;
#127 = LINE ( 'NONE', #119, #30 ) ;
#128 = VECTOR ( 'NONE', #115, 1000.000000000000000 ) ;
#129 = VERTEX_POINT ( 'NONE', #132 ) ;
#130 = APPROVAL_STATUS ( 'not_yet_approved' ) ;
#131 = AXIS2_PLACEMENT_3D ( 'NONE', #140, #63, #125 ) ;
#132 = CARTESIAN_POINT ( 'NONE',  ( 6.249999999999998224, 0.0000000000000000000, 0.0000000000000000000 ) ) ;
#133 = ORIENTED_EDGE ( 'NONE', *, *, #113, .F. ) ;
#134 = DIRECTION ( 'NONE',  ( 0.0000000000000000000, 0.0000000000000000000, 1.000000000000000000 ) ) ;
#135 = LOCAL_TIME ( 10, 54, 37.00000000000000000, #162 ) ;
#136 = LOCAL_TIME ( 10, 54, 37.00000000000000000, #26 ) ;
#137 =( GEOMETRIC_REPRESENTATION_CONTEXT ( 3 ) GLOBAL_UNCERTAINTY_ASSIGNED_CONTEXT ( ( #48 ) ) GLOBAL_UNIT_ASSIGNED_CONTEXT ( ( #43, #87, #102 ) ) REPRESENTATION_CONTEXT ( 'NONE', 'WORKASPACE' ) );
#138 = AXIS2_PLACEMENT_3D ( 'NONE', #83, #172, #96 ) ;
#139 = ORIENTED_EDGE ( 'NONE', *, *, #78, .F. ) ;
#140 = CARTESIAN_POINT ( 'NONE',  ( 0.0000000000000000000, 0.0000000000000000000, 0.0000000000000000000 ) ) ;
#141 = CARTESIAN_POINT ( 'NONE',  ( 0.0000000000000000000, 0.0000000000000000000, -1.500000000000000000 ) ) ;
#142 = LOCAL_TIME ( 10, 54, 37.00000000000000000, #60 ) ;
#143 = ORIENTED_EDGE ( 'NONE', *, *, #52, .T. ) ;
#144 = PERSON_AND_ORGANIZATION_ROLE ( 'creator' ) ;
#145 = DIRECTION ( 'NONE',  ( 1.000000000000000000, 0.0000000000000000000, 0.0000000000000000000 ) ) ;
#146 = CARTESIAN_POINT ( 'NONE',  ( 0.0000000000000000000, 0.0000000000000000000, 0.0000000000000000000 ) ) ;
#147 = SECURITY_CLASSIFICATION_LEVEL ( 'unclassified' ) ;
#148 = VERTEX_POINT ( 'NONE', #175 ) ;
#149 = ADVANCED_FACE ( 'NONE', ( #56 ), #101, .T. ) ;
#150 = DATE_AND_TIME ( #15, #120 ) ;
#151 = CC_DESIGN_APPROVAL ( #38, ( #69 ) ) ;
#152 = PERSON_AND_ORGANIZATION ( #22, #154 ) ;
#153 = DIRECTION ( 'NONE',  ( 0.0000000000000000000, 0.0000000000000000000, 1.000000000000000000 ) ) ;
#154 = ORGANIZATION ( 'UNSPECIFIED', 'UNSPECIFIED', '' ) ;
#155 = APPROVAL_STATUS ( 'not_yet_approved' ) ;
#156 = CIRCLE ( 'NONE', #36, 6.249999999999998224 ) ;
#157 = LOCAL_TIME ( 10, 54, 37.00000000000000000, #168 ) ;
#158 = ORIENTED_EDGE ( 'NONE', *, *, #52, .F. ) ;
#159 = CARTESIAN_POINT ( 'NONE',  ( 6.249999999999998224, 0.0000000000000000000, -1.500000000000000000 ) ) ;
#160 = APPROVAL_ROLE ( '' ) ;
#161 = APPLICATION_PROTOCOL_DEFINITION ( 'international standard', 'config_control_design', 1994, #57 ) ;
#162 = COORDINATED_UNIVERSAL_TIME_OFFSET ( 5, 0, .BEHIND. ) ;
#163 = CC_DESIGN_APPROVAL ( #17, ( #126 ) ) ;
#164 = DESIGN_CONTEXT ( 'detailed design', #45, 'design' ) ;
#165 = EDGE_LOOP ( 'NONE', ( #76, #44 ) ) ;
#166 = CC_DESIGN_DATE_AND_TIME_ASSIGNMENT ( #170, #40, ( #126 ) ) ;
#167 = CC_DESIGN_PERSON_AND_ORGANIZATION_ASSIGNMENT ( #25, #121, ( #92 ) ) ;
#168 = COORDINATED_UNIVERSAL_TIME_OFFSET ( 5, 0, .BEHIND. ) ;
#169 = CIRCLE ( 'NONE', #50, 6.249999999999998224 ) ;
#170 = DATE_AND_TIME ( #55, #157 ) ;
#171 = EDGE_LOOP ( 'NONE', ( #31, #143 ) ) ;
#172 = DIRECTION ( 'NONE',  ( 0.0000000000000000000, 0.0000000000000000000, 1.000000000000000000 ) ) ;
#173 = DIRECTION ( 'NONE',  ( 1.000000000000000000, 0.0000000000000000000, 0.0000000000000000000 ) ) ;
#174 = VERTEX_POINT ( 'NONE', #159 ) ;
#175 = CARTESIAN_POINT ( 'NONE',  ( -6.249999999999998224, 7.654042494670955634E-16, 0.0000000000000000000 ) ) ;
ENDSEC;
END-ISO-10303-21;
