ISO-10303-21;
HEADER;
FILE_DESCRIPTION (( 'STEP AP203' ),
    '1' );
FILE_NAME ('4218-E0W.STEP',
    '2015-11-16T21:54:07',
    ( 'admin' ),
    ( '' ),
    'SwSTEP 2.0',
    'SolidWorks 2014',
    '' );
FILE_SCHEMA (( 'CONFIG_CONTROL_DESIGN' ));
ENDSEC;

DATA;
#1 = DIRECTION ( 'NONE',  ( -1.000000000000000000, -1.836970198721029900E-016, -0.0000000000000000000 ) ) ;
#2 = DIRECTION ( 'NONE',  ( 1.731506571600154900E-016, -1.000000000000000000, 0.0000000000000000000 ) ) ;
#3 = EDGE_CURVE ( 'NONE', #295, #316, #191, .T. ) ;
#4 = ORIENTED_EDGE ( 'NONE', *, *, #179, .F. ) ;
#5 = AXIS2_PLACEMENT_3D ( 'NONE', #146, #279, #18 ) ;
#6 = VECTOR ( 'NONE', #310, 39.37007874015748100 ) ;
#7 = ORIENTED_EDGE ( 'NONE', *, *, #97, .T. ) ;
#8 = VECTOR ( 'NONE', #216, 39.37007874015748100 ) ;
#9 = DIRECTION ( 'NONE',  ( -1.000000000000000000, -1.836970198721029900E-016, -0.0000000000000000000 ) ) ;
#10 = EDGE_CURVE ( 'NONE', #100, #70, #81, .T. ) ;
#11 = ORIENTED_EDGE ( 'NONE', *, *, #83, .F. ) ;
#12 = CARTESIAN_POINT ( 'NONE',  ( 0.1433216668399237000, 0.5000000000000000000, 6.123233995736764800E-017 ) ) ;
#13 = DIRECTION ( 'NONE',  ( 2.249639673992786700E-032, -1.224646799147353200E-016, 1.000000000000000000 ) ) ;
#14 = AXIS2_PLACEMENT_3D ( 'NONE', #320, #167, #304 ) ;
#15 = CARTESIAN_POINT ( 'NONE',  ( -0.04105720342398817800, 3.306163291776122200E-018, 0.0000000000000000000 ) ) ;
#16 = EDGE_CURVE ( 'NONE', #197, #316, #141, .T. ) ;
#17 = CARTESIAN_POINT ( 'NONE',  ( -0.05905511811023622700, 0.0000000000000000000, 0.0000000000000000000 ) ) ;
#18 = DIRECTION ( 'NONE',  ( 1.878145495644181100E-016, -1.000000000000000000, 0.0000000000000000000 ) ) ;
#19 = CLOSED_SHELL ( 'NONE', ( #282, #35, #139, #208, #311, #90, #158, #67, #258, #182 ) ) ;
#20 = CARTESIAN_POINT ( 'NONE',  ( 5.846373866062820400, 1.084202172485504400E-015, 0.0000000000000000000 ) ) ;
#21 = CARTESIAN_POINT ( 'NONE',  ( 0.1502813792531768300, 3.845449071612332600E-017, 0.0000000000000000000 ) ) ;
#22 = EDGE_CURVE ( 'NONE', #240, #249, #281, .T. ) ;
#23 = TOROIDAL_SURFACE ( 'NONE', #323, 0.03127719661809837100, 5.905511811023623100 ) ;
#24 = FACE_OUTER_BOUND ( 'NONE', #256, .T. ) ;
#25 = CARTESIAN_POINT ( 'NONE',  ( -0.04105720342398817800, 3.306163291776122200E-018, 0.0000000000000000000 ) ) ;
#26 = MANIFOLD_SOLID_BREP ( '4218-001-1-solid1', #19 ) ;
#27 = DIRECTION ( 'NONE',  ( 0.0000000000000000000, -1.000000000000000000, -1.224646799147353200E-016 ) ) ;
#28 = VERTEX_POINT ( 'NONE', #283 ) ;
#29 = APPROVAL_DATE_TIME ( #226, #180 ) ;
#30 = PRODUCT_DEFINITION ( 'UNKNOWN', '', #39, #48 ) ;
#31 = PRODUCT_RELATED_PRODUCT_CATEGORY ( 'detail', '', ( #275 ) ) ;
#32 = CIRCLE ( 'NONE', #312, 0.4930402875867467300 ) ;
#33 = DIRECTION ( 'NONE',  ( 0.7071067811865476800, -0.7071067811865473500, 8.659560562354931600E-017 ) ) ;
#34 =( NAMED_UNIT ( * ) SI_UNIT ( $, .STERADIAN. ) SOLID_ANGLE_UNIT ( ) );
#35 = ADVANCED_FACE ( 'NONE', ( #270 ), #253, .T. ) ;
#36 = DIRECTION ( 'NONE',  ( 1.878145495644181100E-016, -1.000000000000000000, 0.0000000000000000000 ) ) ;
#37 = COORDINATED_UNIVERSAL_TIME_OFFSET ( 5, 0, .BEHIND. ) ;
#38 = EDGE_LOOP ( 'NONE', ( #175, #280, #47 ) ) ;
#39 = PRODUCT_DEFINITION_FORMATION_WITH_SPECIFIED_SOURCE ( 'ANY', '', #275, .NOT_KNOWN. ) ;
#40 = LENGTH_MEASURE_WITH_UNIT ( LENGTH_MEASURE( 0.02539999999999999900 ), #162 );
#41 = EDGE_CURVE ( 'NONE', #295, #249, #73, .T. ) ;
#42 = SPHERICAL_SURFACE ( 'NONE', #306, 1.377952755905512000 ) ;
#43 = CARTESIAN_POINT ( 'NONE',  ( -0.05905511811023631700, 0.4999999999999999400, 6.123233995736764800E-017 ) ) ;
#44 = DIRECTION ( 'NONE',  ( -1.878145495644181100E-016, 1.000000000000000000, 0.0000000000000000000 ) ) ;
#45 = DIRECTION ( 'NONE',  ( 1.707404996040164800E-016, -1.000000000000000000, 0.0000000000000000000 ) ) ;
#46 = ORIENTED_EDGE ( 'NONE', *, *, #3, .F. ) ;
#47 = ORIENTED_EDGE ( 'NONE', *, *, #10, .F. ) ;
#48 = DESIGN_CONTEXT ( 'detailed design', #71, 'design' ) ;
#49 = DATE_TIME_ROLE ( 'classification_date' ) ;
#50 = APPROVAL_STATUS ( 'not_yet_approved' ) ;
#51 = CC_DESIGN_APPROVAL ( #189, ( #30 ) ) ;
#52 = LOCAL_TIME ( 16, 54, 7.000000000000000000, #37 ) ;
#53 = CIRCLE ( 'NONE', #129, 0.4930402875867465100 ) ;
#54 = CONICAL_SURFACE ( 'NONE', #238, 0.4999999999999999400, 0.7853981633974482800 ) ;
#55 = APPROVAL_PERSON_ORGANIZATION ( #267, #180, #178 ) ;
#56 = DIRECTION ( 'NONE',  ( 1.836970198721029900E-016, -1.000000000000000000, 0.0000000000000000000 ) ) ;
#57 = DIRECTION ( 'NONE',  ( -1.000000000000000000, -1.836970198721029900E-016, -0.0000000000000000000 ) ) ;
#58 = DIRECTION ( 'NONE',  ( 1.904657228760171100E-016, -1.000000000000000000, 0.0000000000000000000 ) ) ;
#59 = LOCAL_TIME ( 16, 54, 7.000000000000000000, #106 ) ;
#60 = ORIENTED_EDGE ( 'NONE', *, *, #254, .F. ) ;
#61 = EDGE_LOOP ( 'NONE', ( #325, #224, #150 ) ) ;
#62 = AXIS2_PLACEMENT_3D ( 'NONE', #160, #65, #2 ) ;
#63 = DIRECTION ( 'NONE',  ( -1.282749433769087900E-030, 6.982962677686267500E-015, 1.000000000000000000 ) ) ;
#64 = VECTOR ( 'NONE', #210, 39.37007874015748900 ) ;
#65 = DIRECTION ( 'NONE',  ( -1.000000000000000000, -1.836970198721029900E-016, -0.0000000000000000000 ) ) ;
#66 = EDGE_CURVE ( 'NONE', #100, #240, #32, .T. ) ;
#67 = ADVANCED_FACE ( 'NONE', ( #205 ), #328, .T. ) ;
#68 = DIRECTION ( 'NONE',  ( -1.000000000000000000, -1.836970198721029900E-016, -0.0000000000000000000 ) ) ;
#69 = APPLICATION_PROTOCOL_DEFINITION ( 'international standard', 'config_control_design', 1994, #177 ) ;
#70 = VERTEX_POINT ( 'NONE', #76 ) ;
#71 = APPLICATION_CONTEXT ( 'configuration controlled 3d designs of mechanical parts and assemblies' ) ;
#72 = COORDINATED_UNIVERSAL_TIME_OFFSET ( 5, 0, .BEHIND. ) ;
#73 = CIRCLE ( 'NONE', #193, 0.4999999999999999400 ) ;
#74 = AXIS2_PLACEMENT_3D ( 'NONE', #84, #78, #101 ) ;
#75 = SECURITY_CLASSIFICATION ( '', '', #321 ) ;
#76 = CARTESIAN_POINT ( 'NONE',  ( 0.05905511811023627500, 1.904470415996868900E-016, -1.254131664249305100E-030 ) ) ;
#77 = ORIENTED_EDGE ( 'NONE', *, *, #290, .T. ) ;
#78 = DIRECTION ( 'NONE',  ( 0.0000000000000000000, 0.0000000000000000000, 1.000000000000000000 ) ) ;
#79 = CARTESIAN_POINT ( 'NONE',  ( 0.1502813792531769200, -0.4930402875867466700, 0.0000000000000000000 ) ) ;
#80 = APPROVAL ( #211, 'UNSPECIFIED' ) ;
#81 = CIRCLE ( 'NONE', #112, 1.377952755905512000 ) ;
#82 = DIRECTION ( 'NONE',  ( -1.000000000000000000, -1.836970198721030200E-016, -0.0000000000000000000 ) ) ;
#83 = EDGE_CURVE ( 'NONE', #316, #241, #244, .T. ) ;
#84 = CARTESIAN_POINT ( 'NONE',  ( 0.0000000000000000000, 0.0000000000000000000, 0.0000000000000000000 ) ) ;
#85 = PERSON_AND_ORGANIZATION ( #264, #188 ) ;
#86 = ORIENTED_EDGE ( 'NONE', *, *, #22, .T. ) ;
#87 = AXIS2_PLACEMENT_3D ( 'NONE', #120, #305, #56 ) ;
#88 = CARTESIAN_POINT ( 'NONE',  ( 5.846373866062820400, 0.03127719661809945400, 3.830351872465659000E-018 ) ) ;
#89 = DIRECTION ( 'NONE',  ( -1.000000000000000000, -1.836970198721029900E-016, -0.0000000000000000000 ) ) ;
#90 = ADVANCED_FACE ( 'NONE', ( #229 ), #23, .T. ) ;
#91 = UNCERTAINTY_MEASURE_WITH_UNIT (LENGTH_MEASURE( 1.000000000000000100E-005 ), #186, 'distance_accuracy_value', 'NONE');
#92 = APPROVAL_PERSON_ORGANIZATION ( #166, #189, #128 ) ;
#93 = AXIS2_PLACEMENT_3D ( 'NONE', #326, #227, #113 ) ;
#94 = ORIENTED_EDGE ( 'NONE', *, *, #276, .F. ) ;
#95 = PERSON_AND_ORGANIZATION_ROLE ( 'creator' ) ;
#96 = LOCAL_TIME ( 16, 54, 7.000000000000000000, #72 ) ;
#97 = EDGE_CURVE ( 'NONE', #272, #241, #104, .T. ) ;
#98 = TOROIDAL_SURFACE ( 'NONE', #87, 0.03127719661809837100, 5.905511811023623100 ) ;
#99 = CALENDAR_DATE ( 2015, 16, 11 ) ;
#100 = VERTEX_POINT ( 'NONE', #79 ) ;
#101 = DIRECTION ( 'NONE',  ( 1.000000000000000000, 0.0000000000000000000, 0.0000000000000000000 ) ) ;
#102 = CC_DESIGN_PERSON_AND_ORGANIZATION_ASSIGNMENT ( #103, #324, ( #39 ) ) ;
#103 = PERSON_AND_ORGANIZATION ( #264, #188 ) ;
#104 = LINE ( 'NONE', #243, #6 ) ;
#105 = PERSON_AND_ORGANIZATION_ROLE ( 'classification_officer' ) ;
#106 = COORDINATED_UNIVERSAL_TIME_OFFSET ( 5, 0, .BEHIND. ) ;
#107 = ORIENTED_EDGE ( 'NONE', *, *, #231, .F. ) ;
#108 = AXIS2_PLACEMENT_3D ( 'NONE', #15, #277, #58 ) ;
#109 = CARTESIAN_POINT ( 'NONE',  ( 0.1433216668399238700, -0.4999999999999998300, 0.0000000000000000000 ) ) ;
#110 = CIRCLE ( 'NONE', #278, 5.905511811023623100 ) ;
#111 = MECHANICAL_CONTEXT ( 'NONE', #177, 'mechanical' ) ;
#112 = AXIS2_PLACEMENT_3D ( 'NONE', #116, #232, #242 ) ;
#113 = DIRECTION ( 'NONE',  ( 1.731506571600154900E-016, -1.000000000000000000, 0.0000000000000000000 ) ) ;
#114 = ORIENTED_EDGE ( 'NONE', *, *, #247, .F. ) ;
#115 = ORIENTED_EDGE ( 'NONE', *, *, #66, .F. ) ;
#116 = CARTESIAN_POINT ( 'NONE',  ( 1.437007874015748400, 5.279481279788787700E-016, -1.843321036715421300E-030 ) ) ;
#117 = LINE ( 'NONE', #43, #322 ) ;
#118 = FACE_OUTER_BOUND ( 'NONE', #61, .T. ) ;
#119 = COORDINATED_UNIVERSAL_TIME_OFFSET ( 5, 0, .BEHIND. ) ;
#120 = CARTESIAN_POINT ( 'NONE',  ( 5.846373866062820400, 1.084202172485504400E-015, 0.0000000000000000000 ) ) ;
#121 = ORIENTED_EDGE ( 'NONE', *, *, #22, .F. ) ;
#122 = EDGE_LOOP ( 'NONE', ( #207, #164, #302, #185 ) ) ;
#123 = CARTESIAN_POINT ( 'NONE',  ( -0.04105720342398809500, 0.4930402875867509500, 6.038002100438050600E-017 ) ) ;
#124 = CIRCLE ( 'NONE', #5, 0.4999999999999999400 ) ;
#125 = DIRECTION ( 'NONE',  ( -1.000000000000000000, -1.836970198721030200E-016, -0.0000000000000000000 ) ) ;
#126 = LOCAL_TIME ( 16, 54, 7.000000000000000000, #119 ) ;
#127 = DIRECTION ( 'NONE',  ( 1.731506571600154900E-016, -1.000000000000000000, 0.0000000000000000000 ) ) ;
#128 = APPROVAL_ROLE ( '' ) ;
#129 = AXIS2_PLACEMENT_3D ( 'NONE', #25, #170, #291 ) ;
#130 = CC_DESIGN_PERSON_AND_ORGANIZATION_ASSIGNMENT ( #163, #105, ( #75 ) ) ;
#131 = EDGE_LOOP ( 'NONE', ( #296, #86, #176, #225 ) ) ;
#132 = CARTESIAN_POINT ( 'NONE',  ( 0.1502813792531769200, -0.4930402875867466700, 0.0000000000000000000 ) ) ;
#133 = DIRECTION ( 'NONE',  ( 0.0000000000000000000, -1.000000000000000000, 6.860497997771531600E-015 ) ) ;
#134 = FACE_OUTER_BOUND ( 'NONE', #142, .T. ) ;
#135 = ORIENTED_EDGE ( 'NONE', *, *, #247, .T. ) ;
#136 = CALENDAR_DATE ( 2015, 16, 11 ) ;
#137 = CC_DESIGN_APPROVAL ( #180, ( #75 ) ) ;
#138 = CARTESIAN_POINT ( 'NONE',  ( -0.05905511811023622700, 0.0000000000000000000, 0.0000000000000000000 ) ) ;
#139 = ADVANCED_FACE ( 'NONE', ( #134 ), #195, .T. ) ;
#140 = CC_DESIGN_APPROVAL ( #80, ( #39 ) ) ;
#141 = LINE ( 'NONE', #154, #298 ) ;
#142 = EDGE_LOOP ( 'NONE', ( #268, #151, #11, #46 ) ) ;
#143 = CIRCLE ( 'NONE', #273, 5.905511811023623100 ) ;
#144 = AXIS2_PLACEMENT_3D ( 'NONE', #149, #294, #171 ) ;
#145 = DIRECTION ( 'NONE',  ( 0.0000000000000000000, 0.0000000000000000000, -1.000000000000000000 ) ) ;
#146 = CARTESIAN_POINT ( 'NONE',  ( -0.03409749101073478200, 4.584641721257652900E-018, 0.0000000000000000000 ) ) ;
#147 = APPROVAL_STATUS ( 'not_yet_approved' ) ;
#148 = CARTESIAN_POINT ( 'NONE',  ( -0.03409749101073478200, 4.584641721257652900E-018, 0.0000000000000000000 ) ) ;
#149 = CARTESIAN_POINT ( 'NONE',  ( 0.1502813792531768300, 3.845449071612332600E-017, 0.0000000000000000000 ) ) ;
#150 = ORIENTED_EDGE ( 'NONE', *, *, #290, .F. ) ;
#151 = ORIENTED_EDGE ( 'NONE', *, *, #179, .T. ) ;
#152 = AXIS2_PLACEMENT_3D ( 'NONE', #17, #57, #263 ) ;
#153 = CALENDAR_DATE ( 2015, 16, 11 ) ;
#154 = CARTESIAN_POINT ( 'NONE',  ( -0.03409749101073469200, -0.4999999999999999400, 6.123233995736764800E-017 ) ) ;
#155 = SPHERICAL_SURFACE ( 'NONE', #14, 1.377952755905512000 ) ;
#156 = AXIS2_PLACEMENT_3D ( 'NONE', #138, #89, #36 ) ;
#157 = CIRCLE ( 'NONE', #206, 1.377952755905512000 ) ;
#158 = ADVANCED_FACE ( 'NONE', ( #218 ), #54, .T. ) ;
#159 = CC_DESIGN_PERSON_AND_ORGANIZATION_ASSIGNMENT ( #327, #95, ( #39 ) ) ;
#160 = CARTESIAN_POINT ( 'NONE',  ( 0.1502813792531768300, 3.845449071612332600E-017, 0.0000000000000000000 ) ) ;
#161 = EDGE_LOOP ( 'NONE', ( #107, #202, #77 ) ) ;
#162 =( LENGTH_UNIT ( ) NAMED_UNIT ( * ) SI_UNIT ( $, .METRE. ) );
#163 = PERSON_AND_ORGANIZATION ( #264, #188 ) ;
#164 = ORIENTED_EDGE ( 'NONE', *, *, #16, .T. ) ;
#165 = CC_DESIGN_PERSON_AND_ORGANIZATION_ASSIGNMENT ( #271, #297, ( #30 ) ) ;
#166 = PERSON_AND_ORGANIZATION ( #264, #188 ) ;
#167 = DIRECTION ( 'NONE',  ( -1.282749433769087900E-030, 6.982962677686267500E-015, 1.000000000000000000 ) ) ;
#168 = CARTESIAN_POINT ( 'NONE',  ( -0.03409749101073469200, -0.4999999999999999400, 6.123233995736764800E-017 ) ) ;
#169 = FACE_OUTER_BOUND ( 'NONE', #122, .T. ) ;
#170 = DIRECTION ( 'NONE',  ( -1.000000000000000000, -1.836970198721029900E-016, -0.0000000000000000000 ) ) ;
#171 = DIRECTION ( 'NONE',  ( 1.731506571600154900E-016, -1.000000000000000000, 0.0000000000000000000 ) ) ;
#172 = EDGE_CURVE ( 'NONE', #272, #197, #53, .T. ) ;
#173 = CC_DESIGN_SECURITY_CLASSIFICATION ( #75, ( #39 ) ) ;
#174 = DATE_AND_TIME ( #99, #223 ) ;
#175 = ORIENTED_EDGE ( 'NONE', *, *, #199, .F. ) ;
#176 = ORIENTED_EDGE ( 'NONE', *, *, #41, .F. ) ;
#177 = APPLICATION_CONTEXT ( 'configuration controlled 3d designs of mechanical parts and assemblies' ) ;
#178 = APPROVAL_ROLE ( '' ) ;
#179 = EDGE_CURVE ( 'NONE', #249, #241, #117, .T. ) ;
#180 = APPROVAL ( #147, 'UNSPECIFIED' ) ;
#181 = CARTESIAN_POINT ( 'NONE',  ( 0.1502813792531767500, 0.4930402875867467800, 6.038002100437998800E-017 ) ) ;
#182 = ADVANCED_FACE ( 'NONE', ( #219 ), #155, .F. ) ;
#183 = DIRECTION ( 'NONE',  ( -1.260253037029159800E-030, 6.860497997771531600E-015, 1.000000000000000000 ) ) ;
#184 = CARTESIAN_POINT ( 'NONE',  ( 0.1433216668399237800, 3.717601228664185500E-017, 0.0000000000000000000 ) ) ;
#185 = ORIENTED_EDGE ( 'NONE', *, *, #97, .F. ) ;
#186 =( CONVERSION_BASED_UNIT ( 'INCH', #40 ) LENGTH_UNIT ( ) NAMED_UNIT ( #313 ) );
#187 = CARTESIAN_POINT ( 'NONE',  ( -0.03409749101073478200, 4.584641721257652900E-018, 0.0000000000000000000 ) ) ;
#188 = ORGANIZATION ( 'UNSPECIFIED', 'UNSPECIFIED', '' ) ;
#189 = APPROVAL ( #50, 'UNSPECIFIED' ) ;
#190 = DATE_AND_TIME ( #288, #96 ) ;
#191 = LINE ( 'NONE', #269, #308 ) ;
#192 = CONICAL_SURFACE ( 'NONE', #62, 0.4930402875867467300, 0.7853981633974581600 ) ;
#193 = AXIS2_PLACEMENT_3D ( 'NONE', #230, #68, #45 ) ;
#194 = ORIENTED_EDGE ( 'NONE', *, *, #3, .T. ) ;
#195 = CYLINDRICAL_SURFACE ( 'NONE', #152, 0.4999999999999999400 ) ;
#196 = CARTESIAN_POINT ( 'NONE',  ( -0.04105720342398800500, -0.4930402875867509500, 0.0000000000000000000 ) ) ;
#197 = VERTEX_POINT ( 'NONE', #196 ) ;
#198 = DIRECTION ( 'NONE',  ( -1.000000000000000000, -1.836970198721029900E-016, -0.0000000000000000000 ) ) ;
#199 = EDGE_CURVE ( 'NONE', #240, #100, #266, .T. ) ;
#200 = CARTESIAN_POINT ( 'NONE',  ( 1.437007874015748400, 5.279481279788787700E-016, -1.843321036715421300E-030 ) ) ;
#201 = CC_DESIGN_DATE_AND_TIME_ASSIGNMENT ( #190, #49, ( #75 ) ) ;
#202 = ORIENTED_EDGE ( 'NONE', *, *, #172, .T. ) ;
#203 = CARTESIAN_POINT ( 'NONE',  ( 0.1502813792531767500, 0.4930402875867467800, 6.080618048087382400E-017 ) ) ;
#204 = CARTESIAN_POINT ( 'NONE',  ( -0.03409749101073487900, 0.4999999999999999400, 0.0000000000000000000 ) ) ;
#205 = FACE_OUTER_BOUND ( 'NONE', #260, .T. ) ;
#206 = AXIS2_PLACEMENT_3D ( 'NONE', #289, #183, #133 ) ;
#207 = ORIENTED_EDGE ( 'NONE', *, *, #259, .F. ) ;
#208 = ADVANCED_FACE ( 'NONE', ( #169 ), #257, .T. ) ;
#209 = AXIS2_PLACEMENT_3D ( 'NONE', #187, #198, #307 ) ;
#210 = DIRECTION ( 'NONE',  ( -0.7071067811865405800, 0.7071067811865542300, 8.659560562355016700E-017 ) ) ;
#211 = APPROVAL_STATUS ( 'not_yet_approved' ) ;
#212 = APPROVAL_ROLE ( '' ) ;
#213 = ADVANCED_BREP_SHAPE_REPRESENTATION ( '4218-E0W', ( #26, #74 ), #262 ) ;
#214 = APPROVAL_DATE_TIME ( #174, #189 ) ;
#215 = ORIENTED_EDGE ( 'NONE', *, *, #10, .T. ) ;
#216 = DIRECTION ( 'NONE',  ( -0.7071067811865404700, -0.7071067811865545700, 0.0000000000000000000 ) ) ;
#217 = EDGE_CURVE ( 'NONE', #100, #295, #245, .T. ) ;
#218 = FACE_OUTER_BOUND ( 'NONE', #315, .T. ) ;
#219 = FACE_OUTER_BOUND ( 'NONE', #234, .T. ) ;
#220 = DATE_TIME_ROLE ( 'creation_date' ) ;
#221 = SHAPE_DEFINITION_REPRESENTATION ( #236, #213 ) ;
#222 = DIRECTION ( 'NONE',  ( -1.878145495644181100E-016, 1.000000000000000000, 0.0000000000000000000 ) ) ;
#223 = LOCAL_TIME ( 16, 54, 7.000000000000000000, #239 ) ;
#224 = ORIENTED_EDGE ( 'NONE', *, *, #231, .T. ) ;
#225 = ORIENTED_EDGE ( 'NONE', *, *, #217, .F. ) ;
#226 = DATE_AND_TIME ( #136, #126 ) ;
#227 = DIRECTION ( 'NONE',  ( -1.000000000000000000, -1.836970198721029900E-016, -0.0000000000000000000 ) ) ;
#228 = DATE_AND_TIME ( #153, #52 ) ;
#229 = FACE_OUTER_BOUND ( 'NONE', #161, .T. ) ;
#230 = CARTESIAN_POINT ( 'NONE',  ( 0.1433216668399237800, 3.717601228664185500E-017, 0.0000000000000000000 ) ) ;
#231 = EDGE_CURVE ( 'NONE', #272, #28, #110, .T. ) ;
#232 = DIRECTION ( 'NONE',  ( 1.282749433769087600E-030, -6.982962677686266700E-015, -1.000000000000000000 ) ) ;
#233 = DATE_AND_TIME ( #292, #59 ) ;
#234 = EDGE_LOOP ( 'NONE', ( #94, #115, #215 ) ) ;
#235 = DIRECTION ( 'NONE',  ( 1.836970198721029900E-016, -1.000000000000000000, 0.0000000000000000000 ) ) ;
#236 = PRODUCT_DEFINITION_SHAPE ( 'NONE', 'NONE',  #30 ) ;
#237 = PERSON_AND_ORGANIZATION ( #264, #188 ) ;
#238 = AXIS2_PLACEMENT_3D ( 'NONE', #148, #255, #222 ) ;
#239 = COORDINATED_UNIVERSAL_TIME_OFFSET ( 5, 0, .BEHIND. ) ;
#240 = VERTEX_POINT ( 'NONE', #203 ) ;
#241 = VERTEX_POINT ( 'NONE', #204 ) ;
#242 = DIRECTION ( 'NONE',  ( 0.0000000000000000000, 1.000000000000000000, -6.982962677686267500E-015 ) ) ;
#243 = CARTESIAN_POINT ( 'NONE',  ( -0.03409749101073487900, 0.4999999999999999400, 0.0000000000000000000 ) ) ;
#244 = CIRCLE ( 'NONE', #209, 0.4999999999999999400 ) ;
#245 = LINE ( 'NONE', #132, #8 ) ;
#246 = APPLICATION_PROTOCOL_DEFINITION ( 'international standard', 'config_control_design', 1994, #71 ) ;
#247 = EDGE_CURVE ( 'NONE', #249, #295, #330, .T. ) ;
#248 = ORIENTED_EDGE ( 'NONE', *, *, #16, .F. ) ;
#249 = VERTEX_POINT ( 'NONE', #12 ) ;
#250 = DIRECTION ( 'NONE',  ( 1.000000000000000000, 1.836970198721029900E-016, 0.0000000000000000000 ) ) ;
#251 = DIRECTION ( 'NONE',  ( -1.000000000000000000, -1.836970198721029900E-016, -0.0000000000000000000 ) ) ;
#252 = APPROVAL_DATE_TIME ( #228, #80 ) ;
#253 = CONICAL_SURFACE ( 'NONE', #144, 0.4930402875867467300, 0.7853981633974581600 ) ;
#254 = EDGE_CURVE ( 'NONE', #241, #316, #124, .T. ) ;
#255 = DIRECTION ( 'NONE',  ( 1.000000000000000000, 1.836970198721029900E-016, 0.0000000000000000000 ) ) ;
#256 = EDGE_LOOP ( 'NONE', ( #121, #265, #285, #114 ) ) ;
#257 = CONICAL_SURFACE ( 'NONE', #293, 0.4999999999999999400, 0.7853981633974482800 ) ;
#258 = ADVANCED_FACE ( 'NONE', ( #24 ), #192, .T. ) ;
#259 = EDGE_CURVE ( 'NONE', #197, #272, #309, .T. ) ;
#260 = EDGE_LOOP ( 'NONE', ( #4, #135, #194, #60 ) ) ;
#261 = DIRECTION ( 'NONE',  ( 1.982541115402065100E-016, -1.000000000000000000, 6.982962677686267500E-015 ) ) ;
#262 =( GEOMETRIC_REPRESENTATION_CONTEXT ( 3 ) GLOBAL_UNCERTAINTY_ASSIGNED_CONTEXT ( ( #91 ) ) GLOBAL_UNIT_ASSIGNED_CONTEXT ( ( #186, #314, #34 ) ) REPRESENTATION_CONTEXT ( 'NONE', 'WORKASPACE' ) );
#263 = DIRECTION ( 'NONE',  ( 1.878145495644181100E-016, -1.000000000000000000, 0.0000000000000000000 ) ) ;
#264 = PERSON ( 'UNSPECIFIED', 'UNSPECIFIED', 'UNSPECIFIED', ('UNSPECIFIED'), ('UNSPECIFIED'), ('UNSPECIFIED') ) ;
#265 = ORIENTED_EDGE ( 'NONE', *, *, #199, .T. ) ;
#266 = CIRCLE ( 'NONE', #93, 0.4930402875867467300 ) ;
#267 = PERSON_AND_ORGANIZATION ( #264, #188 ) ;
#268 = ORIENTED_EDGE ( 'NONE', *, *, #41, .T. ) ;
#269 = CARTESIAN_POINT ( 'NONE',  ( -0.05905511811023612900, -0.4999999999999999400, 0.0000000000000000000 ) ) ;
#270 = FACE_OUTER_BOUND ( 'NONE', #131, .T. ) ;
#271 = PERSON_AND_ORGANIZATION ( #264, #188 ) ;
#272 = VERTEX_POINT ( 'NONE', #123 ) ;
#273 = AXIS2_PLACEMENT_3D ( 'NONE', #319, #145, #300 ) ;
#274 = PERSON_AND_ORGANIZATION_ROLE ( 'design_owner' ) ;
#275 = PRODUCT ( '4218-E0W', '4218-E0W', '', ( #111 ) ) ;
#276 = EDGE_CURVE ( 'NONE', #240, #70, #157, .T. ) ;
#277 = DIRECTION ( 'NONE',  ( -1.000000000000000000, -1.836970198721029900E-016, -0.0000000000000000000 ) ) ;
#278 = AXIS2_PLACEMENT_3D ( 'NONE', #88, #13, #27 ) ;
#279 = DIRECTION ( 'NONE',  ( -1.000000000000000000, -1.836970198721029900E-016, -0.0000000000000000000 ) ) ;
#280 = ORIENTED_EDGE ( 'NONE', *, *, #276, .T. ) ;
#281 = LINE ( 'NONE', #181, #64 ) ;
#282 = ADVANCED_FACE ( 'NONE', ( #299 ), #42, .F. ) ;
#283 = CARTESIAN_POINT ( 'NONE',  ( -0.05905511811023622700, -2.169649841009090600E-017, 7.575291931707209800E-032 ) ) ;
#284 = ORIENTED_EDGE ( 'NONE', *, *, #172, .F. ) ;
#285 = ORIENTED_EDGE ( 'NONE', *, *, #217, .T. ) ;
#286 = DIRECTION ( 'NONE',  ( 1.707404996040164800E-016, -1.000000000000000000, 0.0000000000000000000 ) ) ;
#287 = CC_DESIGN_PERSON_AND_ORGANIZATION_ASSIGNMENT ( #237, #274, ( #275 ) ) ;
#288 = CALENDAR_DATE ( 2015, 16, 11 ) ;
#289 = CARTESIAN_POINT ( 'NONE',  ( 1.437007874015748400, 5.279481279788787700E-016, -1.843321036715421300E-030 ) ) ;
#290 = EDGE_CURVE ( 'NONE', #197, #28, #143, .T. ) ;
#291 = DIRECTION ( 'NONE',  ( 1.904657228760171100E-016, -1.000000000000000000, 0.0000000000000000000 ) ) ;
#292 = CALENDAR_DATE ( 2015, 16, 11 ) ;
#293 = AXIS2_PLACEMENT_3D ( 'NONE', #317, #250, #44 ) ;
#294 = DIRECTION ( 'NONE',  ( -1.000000000000000000, -1.836970198721029900E-016, -0.0000000000000000000 ) ) ;
#295 = VERTEX_POINT ( 'NONE', #109 ) ;
#296 = ORIENTED_EDGE ( 'NONE', *, *, #66, .T. ) ;
#297 = PERSON_AND_ORGANIZATION_ROLE ( 'creator' ) ;
#298 = VECTOR ( 'NONE', #33, 39.37007874015748100 ) ;
#299 = FACE_OUTER_BOUND ( 'NONE', #38, .T. ) ;
#300 = DIRECTION ( 'NONE',  ( -1.000000000000000000, 0.0000000000000000000, 0.0000000000000000000 ) ) ;
#301 = APPROVAL_PERSON_ORGANIZATION ( #85, #80, #212 ) ;
#302 = ORIENTED_EDGE ( 'NONE', *, *, #83, .T. ) ;
#303 = ORIENTED_EDGE ( 'NONE', *, *, #254, .T. ) ;
#304 = DIRECTION ( 'NONE',  ( 1.982541115402065100E-016, -1.000000000000000000, 6.982962677686267500E-015 ) ) ;
#305 = DIRECTION ( 'NONE',  ( -1.000000000000000000, -1.836970198721029900E-016, -0.0000000000000000000 ) ) ;
#306 = AXIS2_PLACEMENT_3D ( 'NONE', #200, #63, #261 ) ;
#307 = DIRECTION ( 'NONE',  ( 1.878145495644181100E-016, -1.000000000000000000, 0.0000000000000000000 ) ) ;
#308 = VECTOR ( 'NONE', #82, 39.37007874015748100 ) ;
#309 = CIRCLE ( 'NONE', #108, 0.4930402875867465100 ) ;
#310 = DIRECTION ( 'NONE',  ( 0.7071067811865474600, 0.7071067811865475700, 0.0000000000000000000 ) ) ;
#311 = ADVANCED_FACE ( 'NONE', ( #118 ), #98, .T. ) ;
#312 = AXIS2_PLACEMENT_3D ( 'NONE', #21, #251, #127 ) ;
#313 = DIMENSIONAL_EXPONENTS ( 1.000000000000000000, 0.0000000000000000000, 0.0000000000000000000, 0.0000000000000000000, 0.0000000000000000000, 0.0000000000000000000, 0.0000000000000000000 ) ;
#314 =( NAMED_UNIT ( * ) PLANE_ANGLE_UNIT ( ) SI_UNIT ( $, .RADIAN. ) );
#315 = EDGE_LOOP ( 'NONE', ( #248, #284, #7, #303 ) ) ;
#316 = VERTEX_POINT ( 'NONE', #168 ) ;
#317 = CARTESIAN_POINT ( 'NONE',  ( -0.03409749101073478200, 4.584641721257652900E-018, 0.0000000000000000000 ) ) ;
#318 = CC_DESIGN_DATE_AND_TIME_ASSIGNMENT ( #233, #220, ( #30 ) ) ;
#319 = CARTESIAN_POINT ( 'NONE',  ( 5.846373866062820400, -0.03127719661809728900, 0.0000000000000000000 ) ) ;
#320 = CARTESIAN_POINT ( 'NONE',  ( 1.437007874015748400, 5.279481279788787700E-016, -1.843321036715421300E-030 ) ) ;
#321 = SECURITY_CLASSIFICATION_LEVEL ( 'unclassified' ) ;
#322 = VECTOR ( 'NONE', #125, 39.37007874015748100 ) ;
#323 = AXIS2_PLACEMENT_3D ( 'NONE', #20, #9, #235 ) ;
#324 = PERSON_AND_ORGANIZATION_ROLE ( 'design_supplier' ) ;
#325 = ORIENTED_EDGE ( 'NONE', *, *, #259, .T. ) ;
#326 = CARTESIAN_POINT ( 'NONE',  ( 0.1502813792531768300, 3.845449071612332600E-017, 0.0000000000000000000 ) ) ;
#327 = PERSON_AND_ORGANIZATION ( #264, #188 ) ;
#328 = CYLINDRICAL_SURFACE ( 'NONE', #156, 0.4999999999999999400 ) ;
#329 = AXIS2_PLACEMENT_3D ( 'NONE', #184, #1, #286 ) ;
#330 = CIRCLE ( 'NONE', #329, 0.4999999999999999400 ) ;
ENDSEC;
END-ISO-10303-21;
