ISO-10303-21;
HEADER;
FILE_DESCRIPTION (( 'STEP AP203' ),
    '1' );
FILE_NAME ('Web Model 13797_13797.step',
    '2019-12-10T20:36:51',
    ( '' ),
    ( '' ),
    'SwSTEP 2.0',
    'SolidWorks 2018',
    '' );
FILE_SCHEMA (( 'CONFIG_CONTROL_DESIGN' ));
ENDSEC;

DATA;
#1 = FACE_OUTER_BOUND ( 'NONE', #101, .T. ) ;
#2 = EDGE_CURVE ( 'NONE', #61, #79, #140, .T. ) ;
#3 = DATE_AND_TIME ( #103, #139 ) ;
#4 = DATE_AND_TIME ( #47, #100 ) ;
#5 = APPLICATION_PROTOCOL_DEFINITION ( 'international standard', 'config_control_design', 1994, #48 ) ;
#6 = CARTESIAN_POINT ( 'NONE',  ( 1.000000000000000000, 3.061616997868383043E-15, -25.00000000000000000 ) ) ;
#7 = PERSON ( 'UNSPECIFIED', 'UNSPECIFIED', 'UNSPECIFIED', ('UNSPECIFIED'), ('UNSPECIFIED'), ('UNSPECIFIED') ) ;
#8 = APPROVAL_ROLE ( '' ) ;
#9 = PLANE ( 'NONE',  #21 ) ;
#10 = DIRECTION ( 'NONE',  ( 0.0000000000000000000, 0.0000000000000000000, -1.000000000000000000 ) ) ;
#11 = CARTESIAN_POINT ( 'NONE',  ( 1.000000000000000000, 0.0000000000000000000, 25.00000000000000000 ) ) ;
#12 = PERSON_AND_ORGANIZATION ( #7, #155 ) ;
#13 = PERSON_AND_ORGANIZATION ( #7, #155 ) ;
#14 = DIRECTION ( 'NONE',  ( -1.000000000000000000, -0.0000000000000000000, -0.0000000000000000000 ) ) ;
#15 = PERSON_AND_ORGANIZATION ( #7, #155 ) ;
#16 = CALENDAR_DATE ( 2019, 10, 12 ) ;
#17 = ADVANCED_FACE ( 'NONE', ( #84 ), #9, .T. ) ;
#18 = PRODUCT_DEFINITION_SHAPE ( 'NONE', 'NONE',  #73 ) ;
#19 = APPLICATION_PROTOCOL_DEFINITION ( 'international standard', 'config_control_design', 1994, #94 ) ;
#20 = APPROVAL ( #168, 'UNSPECIFIED' ) ;
#21 = AXIS2_PLACEMENT_3D ( 'NONE', #50, #97, #40 ) ;
#22 = DIRECTION ( 'NONE',  ( 0.0000000000000000000, 0.0000000000000000000, -1.000000000000000000 ) ) ;
#23 = CARTESIAN_POINT ( 'NONE',  ( 0.0000000000000000000, 0.0000000000000000000, 0.0000000000000000000 ) ) ;
#24 = PLANE ( 'NONE',  #111 ) ;
#25 = CIRCLE ( 'NONE', #31, 25.00000000000000000 ) ;
#26 = DIRECTION ( 'NONE',  ( 0.0000000000000000000, 0.0000000000000000000, 1.000000000000000000 ) ) ;
#27 = DIRECTION ( 'NONE',  ( -1.000000000000000000, -0.0000000000000000000, -0.0000000000000000000 ) ) ;
#28 = CYLINDRICAL_SURFACE ( 'NONE', #70, 25.00000000000000000 ) ;
#29 = PERSON_AND_ORGANIZATION ( #7, #155 ) ;
#30 = VECTOR ( 'NONE', #27, 1000.000000000000000 ) ;
#31 = AXIS2_PLACEMENT_3D ( 'NONE', #53, #158, #137 ) ;
#32 = CLOSED_SHELL ( 'NONE', ( #54, #157, #17, #69 ) ) ;
#33 =( GEOMETRIC_REPRESENTATION_CONTEXT ( 3 ) GLOBAL_UNCERTAINTY_ASSIGNED_CONTEXT ( ( #160 ) ) GLOBAL_UNIT_ASSIGNED_CONTEXT ( ( #34, #113, #62 ) ) REPRESENTATION_CONTEXT ( 'NONE', 'WORKASPACE' ) );
#34 =( LENGTH_UNIT ( ) NAMED_UNIT ( * ) SI_UNIT ( .MILLI., .METRE. ) );
#35 = EDGE_CURVE ( 'NONE', #79, #61, #92, .T. ) ;
#36 = CARTESIAN_POINT ( 'NONE',  ( 1.000000000000000000, 3.061616997868383043E-15, -25.00000000000000000 ) ) ;
#37 = DATE_TIME_ROLE ( 'classification_date' ) ;
#38 = DIRECTION ( 'NONE',  ( 0.0000000000000000000, 0.0000000000000000000, -1.000000000000000000 ) ) ;
#39 = COORDINATED_UNIVERSAL_TIME_OFFSET ( 5, 0, .BEHIND. ) ;
#40 = DIRECTION ( 'NONE',  ( 0.0000000000000000000, 0.0000000000000000000, -1.000000000000000000 ) ) ;
#41 = LINE ( 'NONE', #11, #30 ) ;
#42 = EDGE_CURVE ( 'NONE', #51, #61, #67, .T. ) ;
#43 = CC_DESIGN_DATE_AND_TIME_ASSIGNMENT ( #3, #37, ( #143 ) ) ;
#44 = CALENDAR_DATE ( 2019, 10, 12 ) ;
#45 = CC_DESIGN_PERSON_AND_ORGANIZATION_ASSIGNMENT ( #144, #129, ( #135 ) ) ;
#46 = COORDINATED_UNIVERSAL_TIME_OFFSET ( 5, 0, .BEHIND. ) ;
#47 = CALENDAR_DATE ( 2019, 10, 12 ) ;
#48 = APPLICATION_CONTEXT ( 'configuration controlled 3d designs of mechanical parts and assemblies' ) ;
#49 = APPROVAL_ROLE ( '' ) ;
#50 = CARTESIAN_POINT ( 'NONE',  ( 1.000000000000000000, 0.0000000000000000000, 0.0000000000000000000 ) ) ;
#51 = VERTEX_POINT ( 'NONE', #6 ) ;
#52 = EDGE_CURVE ( 'NONE', #90, #51, #126, .T. ) ;
#53 = CARTESIAN_POINT ( 'NONE',  ( 1.000000000000000000, 0.0000000000000000000, 0.0000000000000000000 ) ) ;
#54 = ADVANCED_FACE ( 'NONE', ( #56 ), #28, .T. ) ;
#55 = DATE_AND_TIME ( #44, #80 ) ;
#56 = FACE_OUTER_BOUND ( 'NONE', #142, .T. ) ;
#57 = ORIENTED_EDGE ( 'NONE', *, *, #35, .T. ) ;
#58 = AXIS2_PLACEMENT_3D ( 'NONE', #146, #164, #96 ) ;
#59 = DATE_AND_TIME ( #167, #131 ) ;
#60 = ORIENTED_EDGE ( 'NONE', *, *, #42, .F. ) ;
#61 = VERTEX_POINT ( 'NONE', #130 ) ;
#62 =( NAMED_UNIT ( * ) SI_UNIT ( $, .STERADIAN. ) SOLID_ANGLE_UNIT ( ) );
#63 = DATE_TIME_ROLE ( 'creation_date' ) ;
#64 = SECURITY_CLASSIFICATION_LEVEL ( 'unclassified' ) ;
#65 = DIRECTION ( 'NONE',  ( 1.000000000000000000, 0.0000000000000000000, 0.0000000000000000000 ) ) ;
#66 = DIRECTION ( 'NONE',  ( 1.000000000000000000, 0.0000000000000000000, 0.0000000000000000000 ) ) ;
#67 = LINE ( 'NONE', #36, #91 ) ;
#68 = COORDINATED_UNIVERSAL_TIME_OFFSET ( 5, 0, .BEHIND. ) ;
#69 = ADVANCED_FACE ( 'NONE', ( #81 ), #24, .F. ) ;
#70 = AXIS2_PLACEMENT_3D ( 'NONE', #153, #154, #117 ) ;
#71 = APPROVAL_DATE_TIME ( #145, #114 ) ;
#72 = APPROVAL_ROLE ( '' ) ;
#73 = PRODUCT_DEFINITION ( 'UNKNOWN', '', #135, #88 ) ;
#74 = PERSON_AND_ORGANIZATION_ROLE ( 'classification_officer' ) ;
#75 = SHAPE_DEFINITION_REPRESENTATION ( #18, #119 ) ;
#76 = DIRECTION ( 'NONE',  ( 1.000000000000000000, 0.0000000000000000000, 0.0000000000000000000 ) ) ;
#77 = EDGE_CURVE ( 'NONE', #51, #90, #25, .T. ) ;
#78 = PERSON_AND_ORGANIZATION ( #7, #155 ) ;
#79 = VERTEX_POINT ( 'NONE', #149 ) ;
#80 = LOCAL_TIME ( 15, 36, 51.00000000000000000, #141 ) ;
#81 = FACE_OUTER_BOUND ( 'NONE', #89, .T. ) ;
#82 = MECHANICAL_CONTEXT ( 'NONE', #94, 'mechanical' ) ;
#83 = APPROVAL_STATUS ( 'not_yet_approved' ) ;
#84 = FACE_OUTER_BOUND ( 'NONE', #156, .T. ) ;
#85 = ORIENTED_EDGE ( 'NONE', *, *, #120, .F. ) ;
#86 = CC_DESIGN_APPROVAL ( #114, ( #73 ) ) ;
#87 = MANIFOLD_SOLID_BREP ( '001', #32 ) ;
#88 = DESIGN_CONTEXT ( 'detailed design', #48, 'design' ) ;
#89 = EDGE_LOOP ( 'NONE', ( #136, #110 ) ) ;
#90 = VERTEX_POINT ( 'NONE', #116 ) ;
#91 = VECTOR ( 'NONE', #152, 1000.000000000000000 ) ;
#92 = CIRCLE ( 'NONE', #151, 25.00000000000000000 ) ;
#93 = CC_DESIGN_PERSON_AND_ORGANIZATION_ASSIGNMENT ( #29, #163, ( #112 ) ) ;
#94 = APPLICATION_CONTEXT ( 'configuration controlled 3d designs of mechanical parts and assemblies' ) ;
#95 = APPROVAL_PERSON_ORGANIZATION ( #172, #109, #72 ) ;
#96 = DIRECTION ( 'NONE',  ( 1.000000000000000000, 0.0000000000000000000, 0.0000000000000000000 ) ) ;
#97 = DIRECTION ( 'NONE',  ( 1.000000000000000000, 0.0000000000000000000, 0.0000000000000000000 ) ) ;
#98 = DIRECTION ( 'NONE',  ( 0.0000000000000000000, 0.0000000000000000000, -1.000000000000000000 ) ) ;
#99 = PRODUCT_RELATED_PRODUCT_CATEGORY ( 'detail', '', ( #112 ) ) ;
#100 = LOCAL_TIME ( 15, 36, 51.00000000000000000, #169 ) ;
#101 = EDGE_LOOP ( 'NONE', ( #60, #108, #105, #57 ) ) ;
#102 = ORIENTED_EDGE ( 'NONE', *, *, #42, .T. ) ;
#103 = CALENDAR_DATE ( 2019, 10, 12 ) ;
#104 = LOCAL_TIME ( 15, 36, 51.00000000000000000, #39 ) ;
#105 = ORIENTED_EDGE ( 'NONE', *, *, #120, .T. ) ;
#106 = DIRECTION ( 'NONE',  ( 1.000000000000000000, 0.0000000000000000000, 0.0000000000000000000 ) ) ;
#107 = ORIENTED_EDGE ( 'NONE', *, *, #2, .T. ) ;
#108 = ORIENTED_EDGE ( 'NONE', *, *, #52, .F. ) ;
#109 = APPROVAL ( #148, 'UNSPECIFIED' ) ;
#110 = ORIENTED_EDGE ( 'NONE', *, *, #2, .F. ) ;
#111 = AXIS2_PLACEMENT_3D ( 'NONE', #133, #65, #22 ) ;
#112 = PRODUCT ( 'Web Model 13797_13797', 'Web Model 13797_13797', '', ( #82 ) ) ;
#113 =( NAMED_UNIT ( * ) PLANE_ANGLE_UNIT ( ) SI_UNIT ( $, .RADIAN. ) );
#114 = APPROVAL ( #83, 'UNSPECIFIED' ) ;
#115 = PERSON_AND_ORGANIZATION ( #7, #155 ) ;
#116 = CARTESIAN_POINT ( 'NONE',  ( 1.000000000000000000, 0.0000000000000000000, 25.00000000000000000 ) ) ;
#117 = DIRECTION ( 'NONE',  ( 0.0000000000000000000, 0.0000000000000000000, 1.000000000000000000 ) ) ;
#118 = ORIENTED_EDGE ( 'NONE', *, *, #77, .F. ) ;
#119 = ADVANCED_BREP_SHAPE_REPRESENTATION ( 'Web Model 13797_13797', ( #87, #58 ), #33 ) ;
#120 = EDGE_CURVE ( 'NONE', #90, #79, #41, .T. ) ;
#121 = ORIENTED_EDGE ( 'NONE', *, *, #52, .T. ) ;
#122 = CC_DESIGN_DATE_AND_TIME_ASSIGNMENT ( #4, #63, ( #73 ) ) ;
#123 = CC_DESIGN_PERSON_AND_ORGANIZATION_ASSIGNMENT ( #115, #127, ( #73 ) ) ;
#124 = ORIENTED_EDGE ( 'NONE', *, *, #77, .T. ) ;
#125 = AXIS2_PLACEMENT_3D ( 'NONE', #170, #76, #38 ) ;
#126 = CIRCLE ( 'NONE', #128, 25.00000000000000000 ) ;
#127 = PERSON_AND_ORGANIZATION_ROLE ( 'creator' ) ;
#128 = AXIS2_PLACEMENT_3D ( 'NONE', #132, #66, #98 ) ;
#129 = PERSON_AND_ORGANIZATION_ROLE ( 'design_supplier' ) ;
#130 = CARTESIAN_POINT ( 'NONE',  ( 0.0000000000000000000, 3.061616997868383043E-15, -25.00000000000000000 ) ) ;
#131 = LOCAL_TIME ( 15, 36, 51.00000000000000000, #68 ) ;
#132 = CARTESIAN_POINT ( 'NONE',  ( 1.000000000000000000, 0.0000000000000000000, 0.0000000000000000000 ) ) ;
#133 = CARTESIAN_POINT ( 'NONE',  ( 0.0000000000000000000, 0.0000000000000000000, 0.0000000000000000000 ) ) ;
#134 = CC_DESIGN_APPROVAL ( #20, ( #143 ) ) ;
#135 = PRODUCT_DEFINITION_FORMATION_WITH_SPECIFIED_SOURCE ( 'ANY', '', #112, .NOT_KNOWN. ) ;
#136 = ORIENTED_EDGE ( 'NONE', *, *, #35, .F. ) ;
#137 = DIRECTION ( 'NONE',  ( 0.0000000000000000000, 0.0000000000000000000, -1.000000000000000000 ) ) ;
#138 = APPROVAL_DATE_TIME ( #55, #20 ) ;
#139 = LOCAL_TIME ( 15, 36, 51.00000000000000000, #46 ) ;
#140 = CIRCLE ( 'NONE', #125, 25.00000000000000000 ) ;
#141 = COORDINATED_UNIVERSAL_TIME_OFFSET ( 5, 0, .BEHIND. ) ;
#142 = EDGE_LOOP ( 'NONE', ( #118, #102, #107, #85 ) ) ;
#143 = SECURITY_CLASSIFICATION ( '', '', #64 ) ;
#144 = PERSON_AND_ORGANIZATION ( #7, #155 ) ;
#145 = DATE_AND_TIME ( #16, #104 ) ;
#146 = CARTESIAN_POINT ( 'NONE',  ( 0.0000000000000000000, 0.0000000000000000000, 0.0000000000000000000 ) ) ;
#147 = AXIS2_PLACEMENT_3D ( 'NONE', #173, #14, #26 ) ;
#148 = APPROVAL_STATUS ( 'not_yet_approved' ) ;
#149 = CARTESIAN_POINT ( 'NONE',  ( 0.0000000000000000000, 0.0000000000000000000, 25.00000000000000000 ) ) ;
#150 = APPROVAL_DATE_TIME ( #59, #109 ) ;
#151 = AXIS2_PLACEMENT_3D ( 'NONE', #23, #106, #10 ) ;
#152 = DIRECTION ( 'NONE',  ( -1.000000000000000000, -0.0000000000000000000, -0.0000000000000000000 ) ) ;
#153 = CARTESIAN_POINT ( 'NONE',  ( 1.000000000000000000, 0.0000000000000000000, 0.0000000000000000000 ) ) ;
#154 = DIRECTION ( 'NONE',  ( -1.000000000000000000, -0.0000000000000000000, -0.0000000000000000000 ) ) ;
#155 = ORGANIZATION ( 'UNSPECIFIED', 'UNSPECIFIED', '' ) ;
#156 = EDGE_LOOP ( 'NONE', ( #121, #124 ) ) ;
#157 = ADVANCED_FACE ( 'NONE', ( #1 ), #175, .T. ) ;
#158 = DIRECTION ( 'NONE',  ( 1.000000000000000000, 0.0000000000000000000, 0.0000000000000000000 ) ) ;
#159 = CC_DESIGN_PERSON_AND_ORGANIZATION_ASSIGNMENT ( #78, #166, ( #135 ) ) ;
#160 = UNCERTAINTY_MEASURE_WITH_UNIT (LENGTH_MEASURE( 1.000000000000000082E-05 ), #34, 'distance_accuracy_value', 'NONE');
#161 = CC_DESIGN_PERSON_AND_ORGANIZATION_ASSIGNMENT ( #12, #74, ( #143 ) ) ;
#162 = APPROVAL_PERSON_ORGANIZATION ( #13, #114, #49 ) ;
#163 = PERSON_AND_ORGANIZATION_ROLE ( 'design_owner' ) ;
#164 = DIRECTION ( 'NONE',  ( 0.0000000000000000000, 0.0000000000000000000, 1.000000000000000000 ) ) ;
#165 = CC_DESIGN_APPROVAL ( #109, ( #135 ) ) ;
#166 = PERSON_AND_ORGANIZATION_ROLE ( 'creator' ) ;
#167 = CALENDAR_DATE ( 2019, 10, 12 ) ;
#168 = APPROVAL_STATUS ( 'not_yet_approved' ) ;
#169 = COORDINATED_UNIVERSAL_TIME_OFFSET ( 5, 0, .BEHIND. ) ;
#170 = CARTESIAN_POINT ( 'NONE',  ( 0.0000000000000000000, 0.0000000000000000000, 0.0000000000000000000 ) ) ;
#171 = CC_DESIGN_SECURITY_CLASSIFICATION ( #143, ( #135 ) ) ;
#172 = PERSON_AND_ORGANIZATION ( #7, #155 ) ;
#173 = CARTESIAN_POINT ( 'NONE',  ( 1.000000000000000000, 0.0000000000000000000, 0.0000000000000000000 ) ) ;
#174 = APPROVAL_PERSON_ORGANIZATION ( #15, #20, #8 ) ;
#175 = CYLINDRICAL_SURFACE ( 'NONE', #147, 25.00000000000000000 ) ;
ENDSEC;
END-ISO-10303-21;
