ISO-10303-21;
HEADER;
FILE_DESCRIPTION (( 'STEP AP214' ),
    '1' );
FILE_NAME ('4913-E0W.STEP',
    '2009-12-21T17:15:42',
    ( ' ' ),
    ( ' ' ),
    'SwSTEP 2.0',
    'SolidWorks 2009',
    '' );
FILE_SCHEMA (( 'AUTOMOTIVE_DESIGN' ));
ENDSEC;

DATA;
#1 = ORIENTED_EDGE ( 'NONE', *, *, #285, .T. ) ;
#2 = ADVANCED_FACE ( 'NONE', ( #61 ), #59, .T. ) ;
#3 = EDGE_LOOP ( 'NONE', ( #4, #1, #286, #287 ) ) ;
#4 = ORIENTED_EDGE ( 'NONE', *, *, #17, .F. ) ;
#5 = VERTEX_POINT ( 'NONE', #44 ) ;
#6 = ORIENTED_EDGE ( 'NONE', *, *, #18, .T. ) ;
#7 = EDGE_CURVE ( 'NONE', #8, #21, #57, .T. ) ;
#8 = VERTEX_POINT ( 'NONE', #53 ) ;
#9 = EDGE_CURVE ( 'NONE', #21, #14, #51, .T. ) ;
#10 = ORIENTED_EDGE ( 'NONE', *, *, #19, .F. ) ;
#11 = ORIENTED_EDGE ( 'NONE', *, *, #7, .F. ) ;
#12 = EDGE_LOOP ( 'NONE', ( #13, #20, #6, #15, #11, #299 ) ) ;
#13 = ORIENTED_EDGE ( 'NONE', *, *, #28, .T. ) ;
#14 = VERTEX_POINT ( 'NONE', #98 ) ;
#15 = ORIENTED_EDGE ( 'NONE', *, *, #9, .F. ) ;
#16 = EDGE_CURVE ( 'NONE', #37, #5, #117, .T. ) ;
#17 = EDGE_CURVE ( 'NONE', #316, #318, #76, .T. ) ;
#18 = EDGE_CURVE ( 'NONE', #5, #14, #94, .T. ) ;
#19 = EDGE_CURVE ( 'NONE', #21, #318, #95, .T. ) ;
#20 = ORIENTED_EDGE ( 'NONE', *, *, #16, .T. ) ;
#21 = VERTEX_POINT ( 'NONE', #102 ) ;
#22 = DIRECTION ( 'NONE',  ( -0.0000000000000000000, -0.0000000000000000000, 1.000000000000000000 ) ) ;
#23 = DIRECTION ( 'NONE',  ( 1.000000000000000000, 0.0000000000000000000, 0.0000000000000000000 ) ) ;
#24 = AXIS2_PLACEMENT_3D ( 'NONE', #41, #22, #23 ) ;
#25 = ORIENTED_EDGE ( 'NONE', *, *, #29, .F. ) ;
#26 = ORIENTED_EDGE ( 'NONE', *, *, #28, .F. ) ;
#27 = UNCERTAINTY_MEASURE_WITH_UNIT (LENGTH_MEASURE( 1.000000000000000100E-005 ), #146, 'distance_accuracy_value', 'NONE');
#28 = EDGE_CURVE ( 'NONE', #289, #37, #93, .T. ) ;
#29 = EDGE_CURVE ( 'NONE', #40, #289, #110, .T. ) ;
#30 =( GEOMETRIC_REPRESENTATION_CONTEXT ( 3 ) GLOBAL_UNCERTAINTY_ASSIGNED_CONTEXT ( ( #27 ) ) GLOBAL_UNIT_ASSIGNED_CONTEXT ( ( #146, #171, #170 ) ) REPRESENTATION_CONTEXT ( 'NONE', 'WORKASPACE' ) );
#31 =( GEOMETRIC_REPRESENTATION_CONTEXT ( 3 ) GLOBAL_UNCERTAINTY_ASSIGNED_CONTEXT ( ( #35 ) ) GLOBAL_UNIT_ASSIGNED_CONTEXT ( ( #190, #199, #198 ) ) REPRESENTATION_CONTEXT ( 'NONE', 'WORKASPACE' ) );
#32 = CIRCLE ( 'NONE', #24, 12.70000000000000100 ) ;
#33 = DIRECTION ( 'NONE',  ( -0.0000000000000000000, -0.0000000000000000000, 1.000000000000000000 ) ) ;
#34 = CARTESIAN_POINT ( 'NONE',  ( 0.0000000000000000000, 0.0000000000000000000, 1.498042146998600500 ) ) ;
#35 = UNCERTAINTY_MEASURE_WITH_UNIT (LENGTH_MEASURE( 1.000000000000000100E-005 ), #190, 'distance_accuracy_value', 'NONE');
#36 = DIRECTION ( 'NONE',  ( 1.000000000000000000, 0.0000000000000000000, 0.0000000000000000000 ) ) ;
#37 = VERTEX_POINT ( 'NONE', #80 ) ;
#38 = AXIS2_PLACEMENT_3D ( 'NONE', #34, #33, #36 ) ;
#39 = ADVANCED_FACE ( 'NONE', ( #116 ), #96, .T. ) ;
#40 = VERTEX_POINT ( 'NONE', #97 ) ;
#41 = CARTESIAN_POINT ( 'NONE',  ( 0.0000000000000000000, 0.0000000000000000000, 1.498042146998600500 ) ) ;
#42 = UNCERTAINTY_MEASURE_WITH_UNIT (LENGTH_MEASURE( 1.000000000000000100E-005 ), #255, 'distance_accuracy_value', 'NONE');
#43 =( GEOMETRIC_REPRESENTATION_CONTEXT ( 3 ) GLOBAL_UNCERTAINTY_ASSIGNED_CONTEXT ( ( #42 ) ) GLOBAL_UNIT_ASSIGNED_CONTEXT ( ( #255, #233, #232 ) ) REPRESENTATION_CONTEXT ( 'NONE', 'WORKASPACE' ) );
#44 = CARTESIAN_POINT ( 'NONE',  ( -12.70000000000000100, 1.555250069354419300E-015, -1.659358169857821900 ) ) ;
#45 = DIRECTION ( 'NONE',  ( 0.0000000000000000000, 1.000000000000000000, 0.0000000000000000000 ) ) ;
#46 = DIRECTION ( 'NONE',  ( -1.000000000000000000, 0.0000000000000000000, 0.0000000000000000000 ) ) ;
#47 = CARTESIAN_POINT ( 'NONE',  ( 0.0000000000000000000, 0.0000000000000000000, -498.3406418301421500 ) ) ;
#48 = AXIS2_PLACEMENT_3D ( 'NONE', #47, #46, #45 ) ;
#49 = PRESENTATION_LAYER_ASSIGNMENT (  '', '', ( #50 ) ) ;
#50 = STYLED_ITEM ( 'NONE', ( #68 ), #2 ) ;
#51 = CIRCLE ( 'NONE', #38, 12.70000000000000100 ) ;
#52 = CARTESIAN_POINT ( 'NONE',  ( 0.0000000000000000000, 0.0000000000000000000, 1.498042146998600500 ) ) ;
#53 = CARTESIAN_POINT ( 'NONE',  ( 12.70000000000000100, 0.0000000000000000000, 1.498042146998600500 ) ) ;
#54 = DIRECTION ( 'NONE',  ( 1.000000000000000000, 0.0000000000000000000, 0.0000000000000000000 ) ) ;
#55 = DIRECTION ( 'NONE',  ( -0.0000000000000000000, -0.0000000000000000000, 1.000000000000000000 ) ) ;
#56 = AXIS2_PLACEMENT_3D ( 'NONE', #52, #55, #54 ) ;
#57 = CIRCLE ( 'NONE', #56, 12.70000000000000100 ) ;
#58 =( NAMED_UNIT ( * ) PLANE_ANGLE_UNIT ( ) SI_UNIT ( $, .RADIAN. ) );
#59 = SPHERICAL_SURFACE ( 'NONE', #48, 500.0000000000000000 ) ;
#60 =( GEOMETRIC_REPRESENTATION_CONTEXT ( 3 ) GLOBAL_UNCERTAINTY_ASSIGNED_CONTEXT ( ( #66 ) ) GLOBAL_UNIT_ASSIGNED_CONTEXT ( ( #71, #58, #67 ) ) REPRESENTATION_CONTEXT ( 'NONE', 'WORKASPACE' ) );
#61 = FACE_OUTER_BOUND ( 'NONE', #3, .T. ) ;
#62 = COLOUR_RGB ( '',0.9568627450980391500, 0.9490196078431372100, 0.9607843137254902200 ) ;
#63 = SURFACE_STYLE_FILL_AREA ( #64 ) ;
#64 = FILL_AREA_STYLE ('',( #65 ) ) ;
#65 = FILL_AREA_STYLE_COLOUR ( '', #62 ) ;
#66 = UNCERTAINTY_MEASURE_WITH_UNIT (LENGTH_MEASURE( 1.000000000000000100E-005 ), #71, 'distance_accuracy_value', 'NONE');
#67 =( NAMED_UNIT ( * ) SI_UNIT ( $, .STERADIAN. ) SOLID_ANGLE_UNIT ( ) );
#68 = PRESENTATION_STYLE_ASSIGNMENT (( #69 ) ) ;
#69 = SURFACE_STYLE_USAGE ( .BOTH. , #70 ) ;
#70 = SURFACE_SIDE_STYLE ('',( #63 ) ) ;
#71 =( LENGTH_UNIT ( ) NAMED_UNIT ( * ) SI_UNIT ( .MILLI., .METRE. ) );
#72 = MECHANICAL_DESIGN_GEOMETRIC_PRESENTATION_REPRESENTATION (  '', ( #50 ), #60 ) ;
#73 = UNCERTAINTY_MEASURE_WITH_UNIT (LENGTH_MEASURE( 1.000000000000000100E-005 ), #84, 'distance_accuracy_value', 'NONE');
#74 = DIRECTION ( 'NONE',  ( 0.0000000000000000000, 0.0000000000000000000, -1.000000000000000000 ) ) ;
#75 = AXIS2_PLACEMENT_3D ( 'NONE', #118, #91, #90 ) ;
#76 = CIRCLE ( 'NONE', #75, 500.0000000000000000 ) ;
#77 = DIRECTION ( 'NONE',  ( 1.000000000000000000, 0.0000000000000000000, 0.0000000000000000000 ) ) ;
#78 = DIRECTION ( 'NONE',  ( -0.0000000000000000000, -0.0000000000000000000, 1.000000000000000000 ) ) ;
#79 = CARTESIAN_POINT ( 'NONE',  ( 0.0000000000000000000, 0.0000000000000000000, -1.659358169857821900 ) ) ;
#80 = CARTESIAN_POINT ( 'NONE',  ( 0.0000000000000000000, 12.69999999999989300, -1.659358169857835900 ) ) ;
#81 = DIRECTION ( 'NONE',  ( 1.000000000000000000, 0.0000000000000000000, 0.0000000000000000000 ) ) ;
#82 = DIRECTION ( 'NONE',  ( -0.0000000000000000000, -0.0000000000000000000, 1.000000000000000000 ) ) ;
#83 = CARTESIAN_POINT ( 'NONE',  ( 0.0000000000000000000, 0.0000000000000000000, -1.659358169857821900 ) ) ;
#84 =( LENGTH_UNIT ( ) NAMED_UNIT ( * ) SI_UNIT ( .MILLI., .METRE. ) );
#85 = DIRECTION ( 'NONE',  ( -0.0000000000000000000, -0.0000000000000000000, 1.000000000000000000 ) ) ;
#86 = VECTOR ( 'NONE', #85, 1000.000000000000000 ) ;
#87 = CARTESIAN_POINT ( 'NONE',  ( -12.70000000000000100, 1.555250069354419300E-015, 9.064461924698875400 ) ) ;
#88 = AXIS2_PLACEMENT_3D ( 'NONE', #123, #122, #121 ) ;
#89 =( GEOMETRIC_REPRESENTATION_CONTEXT ( 3 ) GLOBAL_UNCERTAINTY_ASSIGNED_CONTEXT ( ( #73 ) ) GLOBAL_UNIT_ASSIGNED_CONTEXT ( ( #84, #120, #119 ) ) REPRESENTATION_CONTEXT ( 'NONE', 'WORKASPACE' ) );
#90 = DIRECTION ( 'NONE',  ( -1.224606353822377300E-016, -1.000000000000000000, 0.0000000000000000000 ) ) ;
#91 = DIRECTION ( 'NONE',  ( -1.000000000000000000, 1.224606353822377300E-016, 0.0000000000000000000 ) ) ;
#92 = AXIS2_PLACEMENT_3D ( 'NONE', #79, #78, #77 ) ;
#93 = CIRCLE ( 'NONE', #92, 12.70000000000000100 ) ;
#94 = LINE ( 'NONE', #87, #86 ) ;
#95 = CIRCLE ( 'NONE', #101, 500.0000000000000000 ) ;
#96 = CYLINDRICAL_SURFACE ( 'NONE', #88, 12.70000000000000100 ) ;
#97 = CARTESIAN_POINT ( 'NONE',  ( -1.555250069354406100E-015, -12.69999999999989300, -1.659358169857835900 ) ) ;
#98 = CARTESIAN_POINT ( 'NONE',  ( -12.70000000000000100, 1.555250069354419300E-015, 1.498042146998600500 ) ) ;
#99 = DIRECTION ( 'NONE',  ( 1.000000000000000000, 0.0000000000000000000, 0.0000000000000000000 ) ) ;
#100 = CARTESIAN_POINT ( 'NONE',  ( 0.0000000000000000000, 0.0000000000000000000, -498.3406418301421500 ) ) ;
#101 = AXIS2_PLACEMENT_3D ( 'NONE', #100, #99, #74 ) ;
#102 = CARTESIAN_POINT ( 'NONE',  ( 0.0000000000000000000, 12.70000000000016400, 1.498042146998606700 ) ) ;
#103 = AXIS2_PLACEMENT_3D ( 'NONE', #126, #125, #124 ) ;
#104 = MECHANICAL_DESIGN_GEOMETRIC_PRESENTATION_REPRESENTATION (  '', ( #106 ), #89 ) ;
#105 = PRESENTATION_LAYER_ASSIGNMENT (  '', '', ( #106 ) ) ;
#106 = STYLED_ITEM ( 'NONE', ( #107 ), #39 ) ;
#107 = PRESENTATION_STYLE_ASSIGNMENT (( #108 ) ) ;
#108 = SURFACE_STYLE_USAGE ( .BOTH. , #111 ) ;
#109 = AXIS2_PLACEMENT_3D ( 'NONE', #83, #82, #81 ) ;
#110 = CIRCLE ( 'NONE', #109, 12.70000000000000100 ) ;
#111 = SURFACE_SIDE_STYLE ('',( #112 ) ) ;
#112 = SURFACE_STYLE_FILL_AREA ( #113 ) ;
#113 = FILL_AREA_STYLE ('',( #114 ) ) ;
#114 = FILL_AREA_STYLE_COLOUR ( '', #115 ) ;
#115 = COLOUR_RGB ( '',0.9568627450980391500, 0.9490196078431372100, 0.9607843137254902200 ) ;
#116 = FACE_OUTER_BOUND ( 'NONE', #12, .T. ) ;
#117 = CIRCLE ( 'NONE', #103, 12.70000000000000100 ) ;
#118 = CARTESIAN_POINT ( 'NONE',  ( 0.0000000000000000000, 0.0000000000000000000, -498.3406418301421500 ) ) ;
#119 =( NAMED_UNIT ( * ) SI_UNIT ( $, .STERADIAN. ) SOLID_ANGLE_UNIT ( ) );
#120 =( NAMED_UNIT ( * ) PLANE_ANGLE_UNIT ( ) SI_UNIT ( $, .RADIAN. ) );
#121 = DIRECTION ( 'NONE',  ( 1.000000000000000000, 0.0000000000000000000, 0.0000000000000000000 ) ) ;
#122 = DIRECTION ( 'NONE',  ( -0.0000000000000000000, -0.0000000000000000000, 1.000000000000000000 ) ) ;
#123 = CARTESIAN_POINT ( 'NONE',  ( 0.0000000000000000000, 0.0000000000000000000, 9.064461924698875400 ) ) ;
#124 = DIRECTION ( 'NONE',  ( 1.000000000000000000, 0.0000000000000000000, 0.0000000000000000000 ) ) ;
#125 = DIRECTION ( 'NONE',  ( -0.0000000000000000000, -0.0000000000000000000, 1.000000000000000000 ) ) ;
#126 = CARTESIAN_POINT ( 'NONE',  ( 0.0000000000000000000, 0.0000000000000000000, -1.659358169857821900 ) ) ;
#127 =( LENGTH_UNIT ( ) NAMED_UNIT ( * ) SI_UNIT ( .MILLI., .METRE. ) );
#128 = UNCERTAINTY_MEASURE_WITH_UNIT (LENGTH_MEASURE( 1.000000000000000100E-005 ), #127, 'distance_accuracy_value', 'NONE');
#129 = SURFACE_STYLE_FILL_AREA ( #135 ) ;
#130 = SURFACE_STYLE_USAGE ( .BOTH. , #132 ) ;
#131 = DIRECTION ( 'NONE',  ( 1.000000000000000000, 0.0000000000000000000, 0.0000000000000000000 ) ) ;
#132 = SURFACE_SIDE_STYLE ('',( #129 ) ) ;
#133 = DIRECTION ( 'NONE',  ( -0.0000000000000000000, -0.0000000000000000000, 1.000000000000000000 ) ) ;
#134 =( GEOMETRIC_REPRESENTATION_CONTEXT ( 3 ) GLOBAL_UNCERTAINTY_ASSIGNED_CONTEXT ( ( #128 ) ) GLOBAL_UNIT_ASSIGNED_CONTEXT ( ( #127, #155, #154 ) ) REPRESENTATION_CONTEXT ( 'NONE', 'WORKASPACE' ) );
#135 = FILL_AREA_STYLE ('',( #169 ) ) ;
#136 = DIRECTION ( 'NONE',  ( 1.000000000000000000, 0.0000000000000000000, 0.0000000000000000000 ) ) ;
#137 = DIRECTION ( 'NONE',  ( -0.0000000000000000000, -0.0000000000000000000, 1.000000000000000000 ) ) ;
#138 = AXIS2_PLACEMENT_3D ( 'NONE', #164, #133, #131 ) ;
#139 = FACE_OUTER_BOUND ( 'NONE', #288, .T. ) ;
#140 = FILL_AREA_STYLE ('',( #163 ) ) ;
#141 = COLOUR_RGB ( '',0.9568627450980391500, 0.9490196078431372100, 0.9607843137254902200 ) ;
#142 = FACE_OUTER_BOUND ( 'NONE', #303, .T. ) ;
#143 = DIRECTION ( 'NONE',  ( -0.0000000000000000000, -0.0000000000000000000, 1.000000000000000000 ) ) ;
#144 = VECTOR ( 'NONE', #143, 1000.000000000000000 ) ;
#145 = PRESENTATION_LAYER_ASSIGNMENT (  '', '', ( #161 ) ) ;
#146 =( LENGTH_UNIT ( ) NAMED_UNIT ( * ) SI_UNIT ( .MILLI., .METRE. ) );
#147 = MECHANICAL_DESIGN_GEOMETRIC_PRESENTATION_REPRESENTATION (  '', ( #149 ), #30 ) ;
#148 = PRESENTATION_LAYER_ASSIGNMENT (  '', '', ( #149 ) ) ;
#149 = STYLED_ITEM ( 'NONE', ( #150 ), #302 ) ;
#150 = PRESENTATION_STYLE_ASSIGNMENT (( #151 ) ) ;
#151 = SURFACE_STYLE_USAGE ( .BOTH. , #152 ) ;
#152 = SURFACE_SIDE_STYLE ('',( #153 ) ) ;
#153 = SURFACE_STYLE_FILL_AREA ( #140 ) ;
#154 =( NAMED_UNIT ( * ) SI_UNIT ( $, .STERADIAN. ) SOLID_ANGLE_UNIT ( ) );
#155 =( NAMED_UNIT ( * ) PLANE_ANGLE_UNIT ( ) SI_UNIT ( $, .RADIAN. ) );
#156 = CARTESIAN_POINT ( 'NONE',  ( 0.0000000000000000000, 0.0000000000000000000, -1.659358169857821900 ) ) ;
#157 = AXIS2_PLACEMENT_3D ( 'NONE', #156, #137, #136 ) ;
#158 = CIRCLE ( 'NONE', #157, 12.70000000000000100 ) ;
#159 = LINE ( 'NONE', #162, #144 ) ;
#160 = CARTESIAN_POINT ( 'NONE',  ( 12.70000000000000100, 0.0000000000000000000, -1.659358169857821900 ) ) ;
#161 = STYLED_ITEM ( 'NONE', ( #166 ), #291 ) ;
#162 = CARTESIAN_POINT ( 'NONE',  ( 12.70000000000000100, 0.0000000000000000000, 9.064461924698875400 ) ) ;
#163 = FILL_AREA_STYLE_COLOUR ( '', #141 ) ;
#164 = CARTESIAN_POINT ( 'NONE',  ( 0.0000000000000000000, 0.0000000000000000000, 9.064461924698875400 ) ) ;
#165 = CYLINDRICAL_SURFACE ( 'NONE', #138, 12.70000000000000100 ) ;
#166 = PRESENTATION_STYLE_ASSIGNMENT (( #130 ) ) ;
#167 = MECHANICAL_DESIGN_GEOMETRIC_PRESENTATION_REPRESENTATION (  '', ( #161 ), #134 ) ;
#168 = COLOUR_RGB ( '',0.9568627450980391500, 0.9490196078431372100, 0.9607843137254902200 ) ;
#169 = FILL_AREA_STYLE_COLOUR ( '', #168 ) ;
#170 =( NAMED_UNIT ( * ) SI_UNIT ( $, .STERADIAN. ) SOLID_ANGLE_UNIT ( ) );
#171 =( NAMED_UNIT ( * ) PLANE_ANGLE_UNIT ( ) SI_UNIT ( $, .RADIAN. ) );
#172 =( NAMED_UNIT ( * ) PLANE_ANGLE_UNIT ( ) SI_UNIT ( $, .RADIAN. ) );
#173 =( LENGTH_UNIT ( ) NAMED_UNIT ( * ) SI_UNIT ( .MILLI., .METRE. ) );
#174 =( NAMED_UNIT ( * ) SI_UNIT ( $, .STERADIAN. ) SOLID_ANGLE_UNIT ( ) );
#175 = PRESENTATION_STYLE_ASSIGNMENT (( #176 ) ) ;
#176 = SURFACE_STYLE_USAGE ( .BOTH. , #177 ) ;
#177 = SURFACE_SIDE_STYLE ('',( #178 ) ) ;
#178 = SURFACE_STYLE_FILL_AREA ( #179 ) ;
#179 = FILL_AREA_STYLE ('',( #180 ) ) ;
#180 = FILL_AREA_STYLE_COLOUR ( '', #216 ) ;
#181 = DIRECTION ( 'NONE',  ( 0.0000000000000000000, 1.000000000000000000, 0.0000000000000000000 ) ) ;
#182 =( NAMED_UNIT ( * ) SI_UNIT ( $, .STERADIAN. ) SOLID_ANGLE_UNIT ( ) );
#183 = SURFACE_STYLE_USAGE ( .BOTH. , #184 ) ;
#184 = SURFACE_SIDE_STYLE ('',( #210 ) ) ;
#185 =( LENGTH_UNIT ( ) NAMED_UNIT ( * ) SI_UNIT ( .MILLI., .METRE. ) );
#186 = SURFACE_STYLE_FILL_AREA ( #187 ) ;
#187 = FILL_AREA_STYLE ('',( #188 ) ) ;
#188 = FILL_AREA_STYLE_COLOUR ( '', #189 ) ;
#189 = COLOUR_RGB ( '',0.9568627450980391500, 0.9490196078431372100, 0.9607843137254902200 ) ;
#190 =( LENGTH_UNIT ( ) NAMED_UNIT ( * ) SI_UNIT ( .MILLI., .METRE. ) );
#191 = MECHANICAL_DESIGN_GEOMETRIC_PRESENTATION_REPRESENTATION (  '', ( #193 ), #31 ) ;
#192 = PRESENTATION_LAYER_ASSIGNMENT (  '', '', ( #193 ) ) ;
#193 = STYLED_ITEM ( 'NONE', ( #175 ), #312 ) ;
#194 = SPHERICAL_SURFACE ( 'NONE', #203, 253.1899999999999700 ) ;
#195 =( GEOMETRIC_REPRESENTATION_CONTEXT ( 3 ) GLOBAL_UNCERTAINTY_ASSIGNED_CONTEXT ( ( #223 ) ) GLOBAL_UNIT_ASSIGNED_CONTEXT ( ( #185, #200, #174 ) ) REPRESENTATION_CONTEXT ( 'NONE', 'WORKASPACE' ) );
#196 = MECHANICAL_DESIGN_GEOMETRIC_PRESENTATION_REPRESENTATION (  '', ( #224 ), #214 ) ;
#197 = PRESENTATION_LAYER_ASSIGNMENT (  '', '', ( #224 ) ) ;
#198 =( NAMED_UNIT ( * ) SI_UNIT ( $, .STERADIAN. ) SOLID_ANGLE_UNIT ( ) );
#199 =( NAMED_UNIT ( * ) PLANE_ANGLE_UNIT ( ) SI_UNIT ( $, .RADIAN. ) );
#200 =( NAMED_UNIT ( * ) PLANE_ANGLE_UNIT ( ) SI_UNIT ( $, .RADIAN. ) );
#201 = FACE_OUTER_BOUND ( 'NONE', #308, .T. ) ;
#202 = CARTESIAN_POINT ( 'NONE',  ( 0.0000000000000000000, 0.0000000000000000000, -254.5306418301421700 ) ) ;
#203 = AXIS2_PLACEMENT_3D ( 'NONE', #202, #215, #181 ) ;
#204 = UNCERTAINTY_MEASURE_WITH_UNIT (LENGTH_MEASURE( 1.000000000000000100E-005 ), #173, 'distance_accuracy_value', 'NONE');
#205 = STYLED_ITEM ( 'NONE', ( #206 ), #307 ) ;
#206 = PRESENTATION_STYLE_ASSIGNMENT (( #207 ) ) ;
#207 = SURFACE_STYLE_USAGE ( .BOTH. , #208 ) ;
#208 = SURFACE_SIDE_STYLE ('',( #186 ) ) ;
#209 = AXIS2_PLACEMENT_3D ( 'NONE', #221, #220, #213 ) ;
#210 = SURFACE_STYLE_FILL_AREA ( #211 ) ;
#211 = FILL_AREA_STYLE ('',( #212 ) ) ;
#212 = FILL_AREA_STYLE_COLOUR ( '', #226 ) ;
#213 = DIRECTION ( 'NONE',  ( 0.0000000000000000000, 1.000000000000000000, 0.0000000000000000000 ) ) ;
#214 =( GEOMETRIC_REPRESENTATION_CONTEXT ( 3 ) GLOBAL_UNCERTAINTY_ASSIGNED_CONTEXT ( ( #204 ) ) GLOBAL_UNIT_ASSIGNED_CONTEXT ( ( #173, #172, #182 ) ) REPRESENTATION_CONTEXT ( 'NONE', 'WORKASPACE' ) );
#215 = DIRECTION ( 'NONE',  ( -1.000000000000000000, 0.0000000000000000000, 0.0000000000000000000 ) ) ;
#216 = COLOUR_RGB ( '',0.9568627450980391500, 0.9490196078431372100, 0.9607843137254902200 ) ;
#217 = FACE_OUTER_BOUND ( 'NONE', #301, .T. ) ;
#218 = MECHANICAL_DESIGN_GEOMETRIC_PRESENTATION_REPRESENTATION (  '', ( #205 ), #195 ) ;
#219 = PRESENTATION_LAYER_ASSIGNMENT (  '', '', ( #205 ) ) ;
#220 = DIRECTION ( 'NONE',  ( -1.000000000000000000, 0.0000000000000000000, 0.0000000000000000000 ) ) ;
#221 = CARTESIAN_POINT ( 'NONE',  ( 0.0000000000000000000, 0.0000000000000000000, -254.5306418301421700 ) ) ;
#222 = SPHERICAL_SURFACE ( 'NONE', #209, 253.1899999999999700 ) ;
#223 = UNCERTAINTY_MEASURE_WITH_UNIT (LENGTH_MEASURE( 1.000000000000000100E-005 ), #185, 'distance_accuracy_value', 'NONE');
#224 = STYLED_ITEM ( 'NONE', ( #225 ), #306 ) ;
#225 = PRESENTATION_STYLE_ASSIGNMENT (( #183 ) ) ;
#226 = COLOUR_RGB ( '',0.7960784313725489700, 0.8235294117647058400, 0.9372549019607843100 ) ;
#227 = AXIS2_PLACEMENT_3D ( 'NONE', #234, #245, #244 ) ;
#228 = CIRCLE ( 'NONE', #227, 253.1899999999999100 ) ;
#229 = SHAPE_DEFINITION_REPRESENTATION ( #240, #241 ) ;
#230 = CARTESIAN_POINT ( 'NONE',  ( 0.0000000000000000000, 0.0000000000000000000, -498.3406418301421500 ) ) ;
#231 = CARTESIAN_POINT ( 'NONE',  ( 0.0000000000000000000, 3.061515884555943100E-014, 1.659358169857849700 ) ) ;
#232 =( NAMED_UNIT ( * ) SI_UNIT ( $, .STERADIAN. ) SOLID_ANGLE_UNIT ( ) );
#233 =( NAMED_UNIT ( * ) PLANE_ANGLE_UNIT ( ) SI_UNIT ( $, .RADIAN. ) );
#234 = CARTESIAN_POINT ( 'NONE',  ( 0.0000000000000000000, 0.0000000000000000000, -254.5306418301421700 ) ) ;
#235 = CARTESIAN_POINT ( 'NONE',  ( 0.0000000000000000000, 1.550290413621438400E-014, -1.340641830142208500 ) ) ;
#236 = DIRECTION ( 'NONE',  ( -1.224606353822377300E-016, -1.000000000000000000, 0.0000000000000000000 ) ) ;
#237 = DIRECTION ( 'NONE',  ( -1.000000000000000000, 1.224606353822377300E-016, 0.0000000000000000000 ) ) ;
#238 = CARTESIAN_POINT ( 'NONE',  ( 0.0000000000000000000, 0.0000000000000000000, -254.5306418301421700 ) ) ;
#239 = SPHERICAL_SURFACE ( 'NONE', #270, 500.0000000000000000 ) ;
#240 = PRODUCT_DEFINITION_SHAPE ( 'NONE', 'NONE',  #278 ) ;
#241 = ADVANCED_BREP_SHAPE_REPRESENTATION ( '4913-E0W', ( #306, #271 ), #242 ) ;
#242 =( GEOMETRIC_REPRESENTATION_CONTEXT ( 3 ) GLOBAL_UNCERTAINTY_ASSIGNED_CONTEXT ( ( #253 ) ) GLOBAL_UNIT_ASSIGNED_CONTEXT ( ( #243, #260, #254 ) ) REPRESENTATION_CONTEXT ( 'NONE', 'WORKASPACE' ) );
#243 =( LENGTH_UNIT ( ) NAMED_UNIT ( * ) SI_UNIT ( .MILLI., .METRE. ) );
#244 = DIRECTION ( 'NONE',  ( 0.0000000000000000000, 0.0000000000000000000, -1.000000000000000000 ) ) ;
#245 = DIRECTION ( 'NONE',  ( 1.000000000000000000, -0.0000000000000000000, 0.0000000000000000000 ) ) ;
#246 = SURFACE_STYLE_USAGE ( .BOTH. , #247 ) ;
#247 = SURFACE_SIDE_STYLE ('',( #248 ) ) ;
#248 = SURFACE_STYLE_FILL_AREA ( #249 ) ;
#249 = FILL_AREA_STYLE ('',( #250 ) ) ;
#250 = FILL_AREA_STYLE_COLOUR ( '', #251 ) ;
#251 = COLOUR_RGB ( '',0.7960784313725489700, 0.8235294117647058400, 0.9372549019607843100 ) ;
#252 = DIRECTION ( 'NONE',  ( 0.0000000000000000000, 1.000000000000000000, 0.0000000000000000000 ) ) ;
#253 = UNCERTAINTY_MEASURE_WITH_UNIT (LENGTH_MEASURE( 1.000000000000000100E-005 ), #243, 'distance_accuracy_value', 'NONE');
#254 =( NAMED_UNIT ( * ) SI_UNIT ( $, .STERADIAN. ) SOLID_ANGLE_UNIT ( ) );
#255 =( LENGTH_UNIT ( ) NAMED_UNIT ( * ) SI_UNIT ( .MILLI., .METRE. ) );
#256 = MECHANICAL_DESIGN_GEOMETRIC_PRESENTATION_REPRESENTATION (  '', ( #258 ), #43 ) ;
#257 = PRESENTATION_LAYER_ASSIGNMENT (  '', '', ( #258 ) ) ;
#258 = STYLED_ITEM ( 'NONE', ( #259 ), #241 ) ;
#259 = PRESENTATION_STYLE_ASSIGNMENT (( #246 ) ) ;
#260 =( NAMED_UNIT ( * ) PLANE_ANGLE_UNIT ( ) SI_UNIT ( $, .RADIAN. ) );
#261 = DIRECTION ( 'NONE',  ( -1.000000000000000000, 0.0000000000000000000, 0.0000000000000000000 ) ) ;
#262 = AXIS2_PLACEMENT_3D ( 'NONE', #268, #267, #266 ) ;
#263 = CARTESIAN_POINT ( 'NONE',  ( -1.555250069354439400E-015, -12.70000000000016400, 1.498042146998606700 ) ) ;
#264 = AXIS2_PLACEMENT_3D ( 'NONE', #238, #237, #236 ) ;
#265 = CIRCLE ( 'NONE', #264, 253.1899999999999700 ) ;
#266 = DIRECTION ( 'NONE',  ( 1.000000000000000000, 0.0000000000000000000, 0.0000000000000000000 ) ) ;
#267 = DIRECTION ( 'NONE',  ( -0.0000000000000000000, -0.0000000000000000000, 1.000000000000000000 ) ) ;
#268 = CARTESIAN_POINT ( 'NONE',  ( 0.0000000000000000000, 0.0000000000000000000, 1.498042146998600500 ) ) ;
#269 = CIRCLE ( 'NONE', #262, 12.70000000000000100 ) ;
#270 = AXIS2_PLACEMENT_3D ( 'NONE', #230, #261, #252 ) ;
#271 = AXIS2_PLACEMENT_3D ( 'NONE', #282, #284, #283 ) ;
#272 = APPLICATION_CONTEXT ( 'automotive_design' ) ;
#273 = PRODUCT ( '4913-E0W', '4913-E0W', '', ( #274 ) ) ;
#274 = PRODUCT_CONTEXT ( 'NONE', #272, 'mechanical' ) ;
#275 = APPLICATION_PROTOCOL_DEFINITION ( 'draft international standard', 'automotive_design', 1998, #272 ) ;
#276 = PRODUCT_RELATED_PRODUCT_CATEGORY ( 'part', '', ( #273 ) ) ;
#277 = PRODUCT_DEFINITION_FORMATION_WITH_SPECIFIED_SOURCE ( 'ANY', '', #273, .NOT_KNOWN. ) ;
#278 = PRODUCT_DEFINITION ( 'UNKNOWN', '', #277, #279 ) ;
#279 = PRODUCT_DEFINITION_CONTEXT ( 'detailed design', #281, 'design' ) ;
#280 = APPLICATION_PROTOCOL_DEFINITION ( 'draft international standard', 'automotive_design', 1998, #281 ) ;
#281 = APPLICATION_CONTEXT ( 'automotive_design' ) ;
#282 = CARTESIAN_POINT ( 'NONE',  ( 0.0000000000000000000, 0.0000000000000000000, 0.0000000000000000000 ) ) ;
#283 = DIRECTION ( 'NONE',  ( 1.000000000000000000, 0.0000000000000000000, 0.0000000000000000000 ) ) ;
#284 = DIRECTION ( 'NONE',  ( 0.0000000000000000000, 0.0000000000000000000, 1.000000000000000000 ) ) ;
#285 = EDGE_CURVE ( 'NONE', #316, #8, #32, .T. ) ;
#286 = ORIENTED_EDGE ( 'NONE', *, *, #7, .T. ) ;
#287 = ORIENTED_EDGE ( 'NONE', *, *, #19, .T. ) ;
#288 = EDGE_LOOP ( 'NONE', ( #292, #293, #295, #296, #297, #298 ) ) ;
#289 = VERTEX_POINT ( 'NONE', #160 ) ;
#290 = ORIENTED_EDGE ( 'NONE', *, *, #319, .T. ) ;
#291 = ADVANCED_FACE ( 'NONE', ( #139 ), #165, .T. ) ;
#292 = ORIENTED_EDGE ( 'NONE', *, *, #18, .F. ) ;
#293 = ORIENTED_EDGE ( 'NONE', *, *, #294, .T. ) ;
#294 = EDGE_CURVE ( 'NONE', #5, #40, #158, .T. ) ;
#295 = ORIENTED_EDGE ( 'NONE', *, *, #29, .T. ) ;
#296 = ORIENTED_EDGE ( 'NONE', *, *, #300, .T. ) ;
#297 = ORIENTED_EDGE ( 'NONE', *, *, #285, .F. ) ;
#298 = ORIENTED_EDGE ( 'NONE', *, *, #315, .F. ) ;
#299 = ORIENTED_EDGE ( 'NONE', *, *, #300, .F. ) ;
#300 = EDGE_CURVE ( 'NONE', #289, #8, #159, .T. ) ;
#301 = EDGE_LOOP ( 'NONE', ( #313, #314, #317, #10 ) ) ;
#302 = ADVANCED_FACE ( 'NONE', ( #142 ), #222, .F. ) ;
#303 = EDGE_LOOP ( 'NONE', ( #304, #305, #309, #310 ) ) ;
#304 = ORIENTED_EDGE ( 'NONE', *, *, #319, .F. ) ;
#305 = ORIENTED_EDGE ( 'NONE', *, *, #294, .F. ) ;
#306 = MANIFOLD_SOLID_BREP ( 'NONE', #311 ) ;
#307 = ADVANCED_FACE ( 'NONE', ( #201 ), #194, .F. ) ;
#308 = EDGE_LOOP ( 'NONE', ( #25, #290, #321, #26 ) ) ;
#309 = ORIENTED_EDGE ( 'NONE', *, *, #16, .F. ) ;
#310 = ORIENTED_EDGE ( 'NONE', *, *, #322, .T. ) ;
#311 = CLOSED_SHELL ( 'NONE', ( #307, #39, #312, #2, #291, #302 ) ) ;
#312 = ADVANCED_FACE ( 'NONE', ( #217 ), #239, .T. ) ;
#313 = ORIENTED_EDGE ( 'NONE', *, *, #9, .T. ) ;
#314 = ORIENTED_EDGE ( 'NONE', *, *, #315, .T. ) ;
#315 = EDGE_CURVE ( 'NONE', #14, #316, #269, .T. ) ;
#316 = VERTEX_POINT ( 'NONE', #263 ) ;
#317 = ORIENTED_EDGE ( 'NONE', *, *, #17, .T. ) ;
#318 = VERTEX_POINT ( 'NONE', #231 ) ;
#319 = EDGE_CURVE ( 'NONE', #40, #320, #265, .T. ) ;
#320 = VERTEX_POINT ( 'NONE', #235 ) ;
#321 = ORIENTED_EDGE ( 'NONE', *, *, #322, .F. ) ;
#322 = EDGE_CURVE ( 'NONE', #37, #320, #228, .T. ) ;
ENDSEC;
END-ISO-10303-21;
