ISO-10303-21;
HEADER;
FILE_DESCRIPTION (( 'STEP AP203' ),
    '1' );
FILE_NAME ('Web Model 39402_39465.step',
    '2018-10-05T20:55:43',
    ( '' ),
    ( '' ),
    'SwSTEP 2.0',
    'SolidWorks 2016',
    '' );
FILE_SCHEMA (( 'CONFIG_CONTROL_DESIGN' ));
ENDSEC;

DATA;
#1 = AXIS2_PLACEMENT_3D ( 'NONE', #72, #19, #6 ) ;
#2 = VERTEX_POINT ( 'NONE', #154 ) ;
#3 = PRODUCT_DEFINITION ( 'UNKNOWN', '', #107, #31 ) ;
#4 = CARTESIAN_POINT ( 'NONE',  ( 25.39999999999999900, 3.110602869834276900E-015, 1.500000000000000000 ) ) ;
#5 = ORIENTED_EDGE ( 'NONE', *, *, #8, .F. ) ;
#6 = DIRECTION ( 'NONE',  ( -1.000000000000000000, 0.0000000000000000000, 0.0000000000000000000 ) ) ;
#7 = APPLICATION_PROTOCOL_DEFINITION ( 'international standard', 'config_control_design', 1994, #60 ) ;
#8 = EDGE_CURVE ( 'NONE', #2, #16, #25, .T. ) ;
#9 = PERSON_AND_ORGANIZATION ( #89, #160 ) ;
#10 = ADVANCED_BREP_SHAPE_REPRESENTATION ( 'Web Model 39402_39465', ( #22, #166 ), #69 ) ;
#11 = VERTEX_POINT ( 'NONE', #27 ) ;
#12 = UNCERTAINTY_MEASURE_WITH_UNIT (LENGTH_MEASURE( 1.000000000000000100E-005 ), #106, 'distance_accuracy_value', 'NONE');
#13 = PERSON_AND_ORGANIZATION ( #89, #160 ) ;
#14 = ORIENTED_EDGE ( 'NONE', *, *, #171, .T. ) ;
#15 = CC_DESIGN_APPROVAL ( #174, ( #63 ) ) ;
#16 = VERTEX_POINT ( 'NONE', #125 ) ;
#17 = CARTESIAN_POINT ( 'NONE',  ( 0.0000000000000000000, 0.0000000000000000000, 1.500000000000000000 ) ) ;
#18 = DIRECTION ( 'NONE',  ( 1.000000000000000000, 0.0000000000000000000, 0.0000000000000000000 ) ) ;
#19 = DIRECTION ( 'NONE',  ( -0.0000000000000000000, -0.0000000000000000000, -1.000000000000000000 ) ) ;
#20 = FACE_OUTER_BOUND ( 'NONE', #122, .T. ) ;
#21 = ADVANCED_FACE ( 'NONE', ( #23 ), #44, .T. ) ;
#22 = MANIFOLD_SOLID_BREP ( 'Boss-Extrude1', #83 ) ;
#23 = FACE_OUTER_BOUND ( 'NONE', #115, .T. ) ;
#24 = DATE_AND_TIME ( #26, #145 ) ;
#25 = CIRCLE ( 'NONE', #134, 25.39999999999999900 ) ;
#26 = CALENDAR_DATE ( 2018, 5, 10 ) ;
#27 = CARTESIAN_POINT ( 'NONE',  ( -25.39999999999999900, 0.0000000000000000000, 1.500000000000000000 ) ) ;
#28 = DIRECTION ( 'NONE',  ( -0.0000000000000000000, -0.0000000000000000000, -1.000000000000000000 ) ) ;
#29 = LINE ( 'NONE', #108, #73 ) ;
#30 = AXIS2_PLACEMENT_3D ( 'NONE', #17, #71, #80 ) ;
#31 = DESIGN_CONTEXT ( 'detailed design', #61, 'design' ) ;
#32 = PERSON_AND_ORGANIZATION_ROLE ( 'creator' ) ;
#33 = APPROVAL_STATUS ( 'not_yet_approved' ) ;
#34 = APPROVAL ( #111, 'UNSPECIFIED' ) ;
#35 = ORIENTED_EDGE ( 'NONE', *, *, #36, .T. ) ;
#36 = EDGE_CURVE ( 'NONE', #105, #11, #156, .T. ) ;
#37 = ORIENTED_EDGE ( 'NONE', *, *, #141, .F. ) ;
#38 = AXIS2_PLACEMENT_3D ( 'NONE', #57, #40, #138 ) ;
#39 = DIRECTION ( 'NONE',  ( 0.0000000000000000000, 0.0000000000000000000, 1.000000000000000000 ) ) ;
#40 = DIRECTION ( 'NONE',  ( 0.0000000000000000000, 0.0000000000000000000, 1.000000000000000000 ) ) ;
#41 = PRODUCT ( 'Web Model 39402_39465', 'Web Model 39402_39465', '', ( #77 ) ) ;
#42 = EDGE_CURVE ( 'NONE', #11, #105, #139, .T. ) ;
#43 = DIRECTION ( 'NONE',  ( -0.0000000000000000000, -0.0000000000000000000, -1.000000000000000000 ) ) ;
#44 = PLANE ( 'NONE',  #130 ) ;
#45 = PERSON_AND_ORGANIZATION_ROLE ( 'creator' ) ;
#46 = CIRCLE ( 'NONE', #58, 25.39999999999999900 ) ;
#47 = APPROVAL_ROLE ( '' ) ;
#48 = PERSON_AND_ORGANIZATION_ROLE ( 'design_owner' ) ;
#49 = APPROVAL_DATE_TIME ( #132, #101 ) ;
#50 = ORIENTED_EDGE ( 'NONE', *, *, #150, .F. ) ;
#51 = DATE_AND_TIME ( #128, #165 ) ;
#52 = APPROVAL_PERSON_ORGANIZATION ( #13, #34, #142 ) ;
#53 = ORIENTED_EDGE ( 'NONE', *, *, #141, .T. ) ;
#54 = CARTESIAN_POINT ( 'NONE',  ( 0.0000000000000000000, 0.0000000000000000000, 1.500000000000000000 ) ) ;
#55 = DIRECTION ( 'NONE',  ( 1.000000000000000000, 0.0000000000000000000, -0.0000000000000000000 ) ) ;
#56 = CARTESIAN_POINT ( 'NONE',  ( 0.0000000000000000000, 0.0000000000000000000, -1.500000000000000000 ) ) ;
#57 = CARTESIAN_POINT ( 'NONE',  ( 0.0000000000000000000, 0.0000000000000000000, 1.500000000000000000 ) ) ;
#58 = AXIS2_PLACEMENT_3D ( 'NONE', #163, #136, #164 ) ;
#59 = CALENDAR_DATE ( 2018, 5, 10 ) ;
#60 = APPLICATION_CONTEXT ( 'configuration controlled 3d designs of mechanical parts and assemblies' ) ;
#61 = APPLICATION_CONTEXT ( 'configuration controlled 3d designs of mechanical parts and assemblies' ) ;
#62 = ADVANCED_FACE ( 'NONE', ( #85 ), #109, .T. ) ;
#63 = SECURITY_CLASSIFICATION ( '', '', #155 ) ;
#64 = COORDINATED_UNIVERSAL_TIME_OFFSET ( 5, 0, .BEHIND. ) ;
#65 = ORIENTED_EDGE ( 'NONE', *, *, #150, .T. ) ;
#66 = CC_DESIGN_PERSON_AND_ORGANIZATION_ASSIGNMENT ( #159, #48, ( #41 ) ) ;
#67 = LOCAL_TIME ( 16, 55, 43.00000000000000000, #173 ) ;
#68 = APPROVAL_PERSON_ORGANIZATION ( #9, #101, #47 ) ;
#69 =( GEOMETRIC_REPRESENTATION_CONTEXT ( 3 ) GLOBAL_UNCERTAINTY_ASSIGNED_CONTEXT ( ( #12 ) ) GLOBAL_UNIT_ASSIGNED_CONTEXT ( ( #106, #120, #70 ) ) REPRESENTATION_CONTEXT ( 'NONE', 'WORKASPACE' ) );
#70 =( NAMED_UNIT ( * ) SI_UNIT ( $, .STERADIAN. ) SOLID_ANGLE_UNIT ( ) );
#71 = DIRECTION ( 'NONE',  ( -0.0000000000000000000, -0.0000000000000000000, -1.000000000000000000 ) ) ;
#72 = CARTESIAN_POINT ( 'NONE',  ( 0.0000000000000000000, 0.0000000000000000000, 1.500000000000000000 ) ) ;
#73 = VECTOR ( 'NONE', #28, 1000.000000000000000 ) ;
#74 = PERSON_AND_ORGANIZATION_ROLE ( 'design_supplier' ) ;
#75 = APPROVAL_STATUS ( 'not_yet_approved' ) ;
#76 = DIRECTION ( 'NONE',  ( 0.0000000000000000000, 0.0000000000000000000, 1.000000000000000000 ) ) ;
#77 = MECHANICAL_CONTEXT ( 'NONE', #60, 'mechanical' ) ;
#78 = ORIENTED_EDGE ( 'NONE', *, *, #8, .T. ) ;
#79 = CC_DESIGN_PERSON_AND_ORGANIZATION_ASSIGNMENT ( #148, #32, ( #3 ) ) ;
#80 = DIRECTION ( 'NONE',  ( -1.000000000000000000, 0.0000000000000000000, 0.0000000000000000000 ) ) ;
#81 = COORDINATED_UNIVERSAL_TIME_OFFSET ( 5, 0, .BEHIND. ) ;
#82 = DIRECTION ( 'NONE',  ( 1.000000000000000000, 0.0000000000000000000, -0.0000000000000000000 ) ) ;
#83 = CLOSED_SHELL ( 'NONE', ( #62, #172, #21, #86 ) ) ;
#84 = APPROVAL_DATE_TIME ( #24, #34 ) ;
#85 = FACE_OUTER_BOUND ( 'NONE', #113, .T. ) ;
#86 = ADVANCED_FACE ( 'NONE', ( #20 ), #93, .F. ) ;
#87 = CC_DESIGN_PERSON_AND_ORGANIZATION_ASSIGNMENT ( #103, #158, ( #63 ) ) ;
#88 = PERSON_AND_ORGANIZATION ( #89, #160 ) ;
#89 = PERSON ( 'UNSPECIFIED', 'UNSPECIFIED', 'UNSPECIFIED', ('UNSPECIFIED'), ('UNSPECIFIED'), ('UNSPECIFIED') ) ;
#90 = APPROVAL_DATE_TIME ( #51, #174 ) ;
#91 = LOCAL_TIME ( 16, 55, 43.00000000000000000, #104 ) ;
#92 = CC_DESIGN_PERSON_AND_ORGANIZATION_ASSIGNMENT ( #112, #45, ( #107 ) ) ;
#93 = PLANE ( 'NONE',  #124 ) ;
#94 = CARTESIAN_POINT ( 'NONE',  ( 0.0000000000000000000, 0.0000000000000000000, -1.500000000000000000 ) ) ;
#95 = DIRECTION ( 'NONE',  ( 0.0000000000000000000, 0.0000000000000000000, 1.000000000000000000 ) ) ;
#96 = CALENDAR_DATE ( 2018, 5, 10 ) ;
#97 = CYLINDRICAL_SURFACE ( 'NONE', #1, 25.39999999999999900 ) ;
#98 = CARTESIAN_POINT ( 'NONE',  ( 0.0000000000000000000, 0.0000000000000000000, 0.0000000000000000000 ) ) ;
#99 = COORDINATED_UNIVERSAL_TIME_OFFSET ( 5, 0, .BEHIND. ) ;
#100 = DIRECTION ( 'NONE',  ( 1.000000000000000000, 0.0000000000000000000, 0.0000000000000000000 ) ) ;
#101 = APPROVAL ( #33, 'UNSPECIFIED' ) ;
#102 = LINE ( 'NONE', #119, #175 ) ;
#103 = PERSON_AND_ORGANIZATION ( #89, #160 ) ;
#104 = COORDINATED_UNIVERSAL_TIME_OFFSET ( 5, 0, .BEHIND. ) ;
#105 = VERTEX_POINT ( 'NONE', #4 ) ;
#106 =( LENGTH_UNIT ( ) NAMED_UNIT ( * ) SI_UNIT ( .MILLI., .METRE. ) );
#107 = PRODUCT_DEFINITION_FORMATION_WITH_SPECIFIED_SOURCE ( 'ANY', '', #41, .NOT_KNOWN. ) ;
#108 = CARTESIAN_POINT ( 'NONE',  ( 25.39999999999999900, 3.110602869834276900E-015, 1.500000000000000000 ) ) ;
#109 = CYLINDRICAL_SURFACE ( 'NONE', #30, 25.39999999999999900 ) ;
#110 = CC_DESIGN_PERSON_AND_ORGANIZATION_ASSIGNMENT ( #169, #74, ( #107 ) ) ;
#111 = APPROVAL_STATUS ( 'not_yet_approved' ) ;
#112 = PERSON_AND_ORGANIZATION ( #89, #160 ) ;
#113 = EDGE_LOOP ( 'NONE', ( #153, #53, #14, #50 ) ) ;
#114 = CC_DESIGN_DATE_AND_TIME_ASSIGNMENT ( #131, #144, ( #63 ) ) ;
#115 = EDGE_LOOP ( 'NONE', ( #135, #35 ) ) ;
#116 = CC_DESIGN_DATE_AND_TIME_ASSIGNMENT ( #121, #129, ( #3 ) ) ;
#117 = CC_DESIGN_SECURITY_CLASSIFICATION ( #63, ( #107 ) ) ;
#118 = FACE_OUTER_BOUND ( 'NONE', #147, .T. ) ;
#119 = CARTESIAN_POINT ( 'NONE',  ( -25.39999999999999900, 0.0000000000000000000, 1.500000000000000000 ) ) ;
#120 =( NAMED_UNIT ( * ) PLANE_ANGLE_UNIT ( ) SI_UNIT ( $, .RADIAN. ) );
#121 = DATE_AND_TIME ( #59, #91 ) ;
#122 = EDGE_LOOP ( 'NONE', ( #5, #149 ) ) ;
#123 = CARTESIAN_POINT ( 'NONE',  ( 0.0000000000000000000, 0.0000000000000000000, 1.500000000000000000 ) ) ;
#124 = AXIS2_PLACEMENT_3D ( 'NONE', #56, #167, #82 ) ;
#125 = CARTESIAN_POINT ( 'NONE',  ( 25.39999999999999900, 3.110602869834276900E-015, -1.500000000000000000 ) ) ;
#126 = LOCAL_TIME ( 16, 55, 43.00000000000000000, #81 ) ;
#127 = APPLICATION_PROTOCOL_DEFINITION ( 'international standard', 'config_control_design', 1994, #61 ) ;
#128 = CALENDAR_DATE ( 2018, 5, 10 ) ;
#129 = DATE_TIME_ROLE ( 'creation_date' ) ;
#130 = AXIS2_PLACEMENT_3D ( 'NONE', #123, #39, #55 ) ;
#131 = DATE_AND_TIME ( #96, #67 ) ;
#132 = DATE_AND_TIME ( #170, #126 ) ;
#133 = PRODUCT_RELATED_PRODUCT_CATEGORY ( 'detail', '', ( #41 ) ) ;
#134 = AXIS2_PLACEMENT_3D ( 'NONE', #94, #95, #168 ) ;
#135 = ORIENTED_EDGE ( 'NONE', *, *, #42, .T. ) ;
#136 = DIRECTION ( 'NONE',  ( 0.0000000000000000000, 0.0000000000000000000, 1.000000000000000000 ) ) ;
#137 = AXIS2_PLACEMENT_3D ( 'NONE', #54, #151, #18 ) ;
#138 = DIRECTION ( 'NONE',  ( 1.000000000000000000, 0.0000000000000000000, 0.0000000000000000000 ) ) ;
#139 = CIRCLE ( 'NONE', #137, 25.39999999999999900 ) ;
#140 = APPROVAL_ROLE ( '' ) ;
#141 = EDGE_CURVE ( 'NONE', #105, #16, #29, .T. ) ;
#142 = APPROVAL_ROLE ( '' ) ;
#143 = CC_DESIGN_APPROVAL ( #34, ( #107 ) ) ;
#144 = DATE_TIME_ROLE ( 'classification_date' ) ;
#145 = LOCAL_TIME ( 16, 55, 43.00000000000000000, #64 ) ;
#146 = SHAPE_DEFINITION_REPRESENTATION ( #157, #10 ) ;
#147 = EDGE_LOOP ( 'NONE', ( #37, #162, #65, #78 ) ) ;
#148 = PERSON_AND_ORGANIZATION ( #89, #160 ) ;
#149 = ORIENTED_EDGE ( 'NONE', *, *, #171, .F. ) ;
#150 = EDGE_CURVE ( 'NONE', #11, #2, #102, .T. ) ;
#151 = DIRECTION ( 'NONE',  ( 0.0000000000000000000, 0.0000000000000000000, 1.000000000000000000 ) ) ;
#152 = APPROVAL_PERSON_ORGANIZATION ( #88, #174, #140 ) ;
#153 = ORIENTED_EDGE ( 'NONE', *, *, #36, .F. ) ;
#154 = CARTESIAN_POINT ( 'NONE',  ( -25.39999999999999900, 0.0000000000000000000, -1.500000000000000000 ) ) ;
#155 = SECURITY_CLASSIFICATION_LEVEL ( 'unclassified' ) ;
#156 = CIRCLE ( 'NONE', #38, 25.39999999999999900 ) ;
#157 = PRODUCT_DEFINITION_SHAPE ( 'NONE', 'NONE',  #3 ) ;
#158 = PERSON_AND_ORGANIZATION_ROLE ( 'classification_officer' ) ;
#159 = PERSON_AND_ORGANIZATION ( #89, #160 ) ;
#160 = ORGANIZATION ( 'UNSPECIFIED', 'UNSPECIFIED', '' ) ;
#161 = CC_DESIGN_APPROVAL ( #101, ( #3 ) ) ;
#162 = ORIENTED_EDGE ( 'NONE', *, *, #42, .F. ) ;
#163 = CARTESIAN_POINT ( 'NONE',  ( 0.0000000000000000000, 0.0000000000000000000, -1.500000000000000000 ) ) ;
#164 = DIRECTION ( 'NONE',  ( 1.000000000000000000, 0.0000000000000000000, 0.0000000000000000000 ) ) ;
#165 = LOCAL_TIME ( 16, 55, 43.00000000000000000, #99 ) ;
#166 = AXIS2_PLACEMENT_3D ( 'NONE', #98, #76, #100 ) ;
#167 = DIRECTION ( 'NONE',  ( 0.0000000000000000000, 0.0000000000000000000, 1.000000000000000000 ) ) ;
#168 = DIRECTION ( 'NONE',  ( 1.000000000000000000, 0.0000000000000000000, 0.0000000000000000000 ) ) ;
#169 = PERSON_AND_ORGANIZATION ( #89, #160 ) ;
#170 = CALENDAR_DATE ( 2018, 5, 10 ) ;
#171 = EDGE_CURVE ( 'NONE', #16, #2, #46, .T. ) ;
#172 = ADVANCED_FACE ( 'NONE', ( #118 ), #97, .T. ) ;
#173 = COORDINATED_UNIVERSAL_TIME_OFFSET ( 5, 0, .BEHIND. ) ;
#174 = APPROVAL ( #75, 'UNSPECIFIED' ) ;
#175 = VECTOR ( 'NONE', #43, 1000.000000000000000 ) ;
ENDSEC;
END-ISO-10303-21;
