ISO-10303-21;
HEADER;
FILE_DESCRIPTION (( 'STEP AP203' ),
    '1' );
FILE_NAME ('22000-E0W.STEP',
    '2018-06-01T18:12:16',
    ( 'admin' ),
    ( '' ),
    'SwSTEP 2.0',
    'SolidWorks 2016',
    '' );
FILE_SCHEMA (( 'CONFIG_CONTROL_DESIGN' ));
ENDSEC;

DATA;
#1 = AXIS2_PLACEMENT_3D ( 'NONE', #48, #78, #14 ) ;
#2 = ORIENTED_EDGE ( 'NONE', *, *, #186, .T. ) ;
#3 = DIRECTION ( 'NONE',  ( 0.0000000000000000000, 1.836909530733563400E-016, -1.000000000000000000 ) ) ;
#4 = LOCAL_TIME ( 14, 12, 16.00000000000000000, #195 ) ;
#5 = ORIENTED_EDGE ( 'NONE', *, *, #217, .F. ) ;
#6 = COORDINATED_UNIVERSAL_TIME_OFFSET ( 5, 0, .BEHIND. ) ;
#7 = DATE_TIME_ROLE ( 'classification_date' ) ;
#8 = APPROVAL_STATUS ( 'not_yet_approved' ) ;
#9 = ORIENTED_EDGE ( 'NONE', *, *, #322, .T. ) ;
#10 = EDGE_CURVE ( 'NONE', #293, #232, #42, .T. ) ;
#11 = CARTESIAN_POINT ( 'NONE',  ( 0.0000000000000000000, 0.0000000000000000000, 0.0000000000000000000 ) ) ;
#12 = PERSON_AND_ORGANIZATION_ROLE ( 'design_owner' ) ;
#13 = CIRCLE ( 'NONE', #24, 0.5825590551181104600 ) ;
#14 = DIRECTION ( 'NONE',  ( 0.0000000000000000000, 0.0000000000000000000, -1.000000000000000000 ) ) ;
#15 = APPLICATION_CONTEXT ( 'configuration controlled 3d designs of mechanical parts and assemblies' ) ;
#16 = ADVANCED_FACE ( 'NONE', ( #203 ), #56, .T. ) ;
#17 = CC_DESIGN_DATE_AND_TIME_ASSIGNMENT ( #264, #107, ( #277 ) ) ;
#18 = ORIENTED_EDGE ( 'NONE', *, *, #292, .T. ) ;
#19 = APPROVAL_STATUS ( 'not_yet_approved' ) ;
#20 = CARTESIAN_POINT ( 'NONE',  ( 0.0000000000000000000, 1.787644420605017400E-017, 0.2114203641397602900 ) ) ;
#21 = ADVANCED_FACE ( 'NONE', ( #76 ), #259, .F. ) ;
#22 = DIRECTION ( 'NONE',  ( 0.0000000000000000000, -1.000000000000000000, -1.878145495644180800E-016 ) ) ;
#23 = APPROVAL_STATUS ( 'not_yet_approved' ) ;
#24 = AXIS2_PLACEMENT_3D ( 'NONE', #319, #98, #188 ) ;
#25 = PERSON_AND_ORGANIZATION ( #123, #138 ) ;
#26 = ORIENTED_EDGE ( 'NONE', *, *, #95, .T. ) ;
#27 = UNCERTAINTY_MEASURE_WITH_UNIT (LENGTH_MEASURE( 1.000000000000000100E-005 ), #198, 'distance_accuracy_value', 'NONE');
#28 = EDGE_CURVE ( 'NONE', #293, #300, #262, .T. ) ;
#29 = ORIENTED_EDGE ( 'NONE', *, *, #186, .F. ) ;
#30 = DIRECTION ( 'NONE',  ( 0.0000000000000000000, -1.000000000000000000, -2.253838926789628200E-016 ) ) ;
#31 = DIRECTION ( 'NONE',  ( -0.0000000000000000000, -1.836909530733566100E-016, 1.000000000000000000 ) ) ;
#32 = PRODUCT_DEFINITION_FORMATION_WITH_SPECIFIED_SOURCE ( 'ANY', '', #60, .NOT_KNOWN. ) ;
#33 = CIRCLE ( 'NONE', #177, 0.5000000000000001100 ) ;
#34 = DIRECTION ( 'NONE',  ( -0.0000000000000000000, -1.836909530733566100E-016, 1.000000000000000000 ) ) ;
#35 = DIMENSIONAL_EXPONENTS ( 1.000000000000000000, 0.0000000000000000000, 0.0000000000000000000, 0.0000000000000000000, 0.0000000000000000000, 0.0000000000000000000, 0.0000000000000000000 ) ;
#36 = DESIGN_CONTEXT ( 'detailed design', #15, 'design' ) ;
#37 = EDGE_LOOP ( 'NONE', ( #66, #279, #231, #149 ) ) ;
#38 = ORIENTED_EDGE ( 'NONE', *, *, #309, .T. ) ;
#39 = ORIENTED_EDGE ( 'NONE', *, *, #10, .T. ) ;
#40 = DIRECTION ( 'NONE',  ( 0.0000000000000000000, 1.000000000000000000, 2.048885995248196900E-016 ) ) ;
#41 = AXIS2_PLACEMENT_3D ( 'NONE', #20, #314, #328 ) ;
#42 = CIRCLE ( 'NONE', #136, 0.4944322300693972900 ) ;
#43 = SPHERICAL_SURFACE ( 'NONE', #285, 1.212086614173228500 ) ;
#44 = VECTOR ( 'NONE', #209, 39.37007874015748100 ) ;
#45 = ORIENTED_EDGE ( 'NONE', *, *, #217, .T. ) ;
#46 = EDGE_CURVE ( 'NONE', #169, #289, #63, .T. ) ;
#47 = ADVANCED_FACE ( 'NONE', ( #81 ), #321, .F. ) ;
#48 = CARTESIAN_POINT ( 'NONE',  ( 0.0000000000000000000, 6.829619984160658000E-017, 0.5194979883981736300 ) ) ;
#49 = APPROVAL_PERSON_ORGANIZATION ( #79, #183, #301 ) ;
#50 = DIRECTION ( 'NONE',  ( 0.0000000000000000000, -1.000000000000000000, -1.707404996040164500E-016 ) ) ;
#51 = APPROVAL ( #8, 'UNSPECIFIED' ) ;
#52 = DIRECTION ( 'NONE',  ( 0.0000000000000000000, 1.836909530733566100E-016, -1.000000000000000000 ) ) ;
#53 = APPLICATION_CONTEXT ( 'configuration controlled 3d designs of mechanical parts and assemblies' ) ;
#54 = CALENDAR_DATE ( 2018, 1, 6 ) ;
#55 = VERTEX_POINT ( 'NONE', #128 ) ;
#56 = CONICAL_SURFACE ( 'NONE', #154, 0.5000000000000000000, 0.5727933370256572700 ) ;
#57 = DIRECTION ( 'NONE',  ( 1.224646799147353200E-016, 1.000000000000000000, 0.0000000000000000000 ) ) ;
#58 = AXIS2_PLACEMENT_3D ( 'NONE', #298, #295, #294 ) ;
#59 = CONICAL_SURFACE ( 'NONE', #224, 0.5000000000000001100, 0.7853981633974360700 ) ;
#60 = PRODUCT ( '22000-E0W', '22000-E0W', '', ( #201 ) ) ;
#61 = ORIENTED_EDGE ( 'NONE', *, *, #227, .T. ) ;
#62 = PERSON_AND_ORGANIZATION ( #123, #138 ) ;
#63 = LINE ( 'NONE', #206, #182 ) ;
#64 = VERTEX_POINT ( 'NONE', #296 ) ;
#65 = DIRECTION ( 'NONE',  ( -0.0000000000000000000, -1.836909530733563400E-016, 1.000000000000000000 ) ) ;
#66 = ORIENTED_EDGE ( 'NONE', *, *, #309, .F. ) ;
#67 = EDGE_CURVE ( 'NONE', #300, #55, #33, .T. ) ;
#68 = COORDINATED_UNIVERSAL_TIME_OFFSET ( 5, 0, .BEHIND. ) ;
#69 = LOCAL_TIME ( 14, 12, 16.00000000000000000, #97 ) ;
#70 = ORIENTED_EDGE ( 'NONE', *, *, #240, .T. ) ;
#71 = ADVANCED_FACE ( 'NONE', ( #245 ), #59, .T. ) ;
#72 = DIRECTION ( 'NONE',  ( 0.0000000000000000000, -1.000000000000000000, -1.878145495644180800E-016 ) ) ;
#73 = CC_DESIGN_APPROVAL ( #51, ( #32 ) ) ;
#74 = LINE ( 'NONE', #323, #133 ) ;
#75 = CYLINDRICAL_SURFACE ( 'NONE', #267, 0.5000000000000000000 ) ;
#76 = FACE_OUTER_BOUND ( 'NONE', #189, .T. ) ;
#77 = AXIS2_PLACEMENT_3D ( 'NONE', #288, #287, #282 ) ;
#78 = DIRECTION ( 'NONE',  ( 1.000000000000000000, 0.0000000000000000000, 0.0000000000000000000 ) ) ;
#79 = PERSON_AND_ORGANIZATION ( #123, #138 ) ;
#80 = EDGE_LOOP ( 'NONE', ( #110, #2, #9 ) ) ;
#81 = FACE_OUTER_BOUND ( 'NONE', #260, .T. ) ;
#82 = SPHERICAL_SURFACE ( 'NONE', #91, 1.212086614173228500 ) ;
#83 = EDGE_CURVE ( 'NONE', #232, #55, #74, .T. ) ;
#84 = APPROVAL_PERSON_ORGANIZATION ( #317, #51, #270 ) ;
#85 =( NAMED_UNIT ( * ) PLANE_ANGLE_UNIT ( ) SI_UNIT ( $, .RADIAN. ) );
#86 = DATE_AND_TIME ( #101, #69 ) ;
#87 = CC_DESIGN_PERSON_AND_ORGANIZATION_ASSIGNMENT ( #219, #248, ( #32 ) ) ;
#88 = LOCAL_TIME ( 14, 12, 16.00000000000000000, #170 ) ;
#89 = FACE_OUTER_BOUND ( 'NONE', #187, .T. ) ;
#90 = EDGE_LOOP ( 'NONE', ( #308, #38, #325, #118 ) ) ;
#91 = AXIS2_PLACEMENT_3D ( 'NONE', #174, #303, #30 ) ;
#92 = VERTEX_POINT ( 'NONE', #146 ) ;
#93 = FACE_OUTER_BOUND ( 'NONE', #37, .T. ) ;
#94 = ADVANCED_FACE ( 'NONE', ( #142 ), #75, .T. ) ;
#95 = EDGE_CURVE ( 'NONE', #312, #55, #215, .T. ) ;
#96 = DIRECTION ( 'NONE',  ( 0.0000000000000000000, -1.000000000000000000, -2.048885995248196900E-016 ) ) ;
#97 = COORDINATED_UNIVERSAL_TIME_OFFSET ( 5, 0, .BEHIND. ) ;
#98 = DIRECTION ( 'NONE',  ( -1.000000000000000000, 1.224646799147353200E-016, 2.249565377136128300E-032 ) ) ;
#99 = CC_DESIGN_PERSON_AND_ORGANIZATION_ASSIGNMENT ( #148, #284, ( #32 ) ) ;
#100 = CARTESIAN_POINT ( 'NONE',  ( 0.0000000000000000000, 6.829619984160658000E-017, 0.5194979883981736300 ) ) ;
#101 = CALENDAR_DATE ( 2018, 1, 6 ) ;
#102 = ORIENTED_EDGE ( 'NONE', *, *, #95, .F. ) ;
#103 = DIRECTION ( 'NONE',  ( 6.637360972053820700E-017, 0.5419816535408420500, 0.8403903183789865900 ) ) ;
#104 = AXIS2_PLACEMENT_3D ( 'NONE', #235, #243, #96 ) ;
#105 = VECTOR ( 'NONE', #34, 39.37007874015748100 ) ;
#106 = DIRECTION ( 'NONE',  ( 1.000000000000000000, -1.224646799147353200E-016, -2.249565377136128300E-032 ) ) ;
#107 = DATE_TIME_ROLE ( 'creation_date' ) ;
#108 = DIRECTION ( 'NONE',  ( -1.000000000000000000, 0.0000000000000000000, 0.0000000000000000000 ) ) ;
#109 = CARTESIAN_POINT ( 'NONE',  ( 0.0000000000000000000, 6.829619984160658000E-017, 0.9915452324926615800 ) ) ;
#110 = ORIENTED_EDGE ( 'NONE', *, *, #163, .F. ) ;
#111 = FACE_OUTER_BOUND ( 'NONE', #80, .T. ) ;
#112 = PERSON_AND_ORGANIZATION_ROLE ( 'creator' ) ;
#113 = DIRECTION ( 'NONE',  ( 0.0000000000000000000, 0.0000000000000000000, 1.000000000000000000 ) ) ;
#114 = EDGE_CURVE ( 'NONE', #289, #300, #286, .T. ) ;
#115 = DIRECTION ( 'NONE',  ( 0.0000000000000000000, -1.000000000000000000, -1.707404996040164500E-016 ) ) ;
#116 = APPROVAL_PERSON_ORGANIZATION ( #244, #297, #239 ) ;
#117 = APPROVAL_DATE_TIME ( #86, #297 ) ;
#118 = ORIENTED_EDGE ( 'NONE', *, *, #46, .F. ) ;
#119 = CIRCLE ( 'NONE', #77, 0.5000000000000000000 ) ;
#120 = PERSON_AND_ORGANIZATION_ROLE ( 'classification_officer' ) ;
#121 = SECURITY_CLASSIFICATION ( '', '', #222 ) ;
#122 = CARTESIAN_POINT ( 'NONE',  ( 6.123233995736766000E-017, 0.5000000000000001100, -0.1047338028613358400 ) ) ;
#123 = PERSON ( 'UNSPECIFIED', 'UNSPECIFIED', 'UNSPECIFIED', ('UNSPECIFIED'), ('UNSPECIFIED'), ('UNSPECIFIED') ) ;
#124 = CIRCLE ( 'NONE', #1, 0.5825590551181104600 ) ;
#125 = VERTEX_POINT ( 'NONE', #330 ) ;
#126 = CYLINDRICAL_SURFACE ( 'NONE', #130, 0.5000000000000000000 ) ;
#127 = ADVANCED_FACE ( 'NONE', ( #241 ), #167, .T. ) ;
#128 = CARTESIAN_POINT ( 'NONE',  ( 6.123233995736767300E-017, 0.5000000000000001100, 0.2058525942091575000 ) ) ;
#129 = ORIENTED_EDGE ( 'NONE', *, *, #67, .T. ) ;
#130 = AXIS2_PLACEMENT_3D ( 'NONE', #290, #31, #22 ) ;
#131 = DIRECTION ( 'NONE',  ( -0.0000000000000000000, -1.836909530733566100E-016, 1.000000000000000000 ) ) ;
#132 = CONICAL_SURFACE ( 'NONE', #237, 0.5000000000000000000, 0.5727933370256572700 ) ;
#133 = VECTOR ( 'NONE', #315, 39.37007874015748900 ) ;
#134 = DIRECTION ( 'NONE',  ( 0.0000000000000000000, -1.000000000000000000, -2.048885995248196900E-016 ) ) ;
#135 = CIRCLE ( 'NONE', #302, 1.212086614173228500 ) ;
#136 = AXIS2_PLACEMENT_3D ( 'NONE', #257, #164, #208 ) ;
#137 = CARTESIAN_POINT ( 'NONE',  ( 0.0000000000000000000, 6.829619984160658000E-017, -0.06306106671993688700 ) ) ;
#138 = ORGANIZATION ( 'UNSPECIFIED', 'UNSPECIFIED', '' ) ;
#139 = CARTESIAN_POINT ( 'NONE',  ( 0.0000000000000000000, 1.889919317109578400E-017, 0.2058525942091573900 ) ) ;
#140 = CC_DESIGN_PERSON_AND_ORGANIZATION_ASSIGNMENT ( #25, #120, ( #121 ) ) ;
#141 = DIRECTION ( 'NONE',  ( 0.0000000000000000000, -1.000000000000000000, -2.253838926789628200E-016 ) ) ;
#142 = FACE_OUTER_BOUND ( 'NONE', #161, .T. ) ;
#143 = DIRECTION ( 'NONE',  ( -1.000000000000000000, 0.0000000000000000000, -0.0000000000000000000 ) ) ;
#144 = DIRECTION ( 'NONE',  ( -0.0000000000000000000, -1.836909530733566100E-016, 1.000000000000000000 ) ) ;
#145 = ORIENTED_EDGE ( 'NONE', *, *, #10, .F. ) ;
#146 = CARTESIAN_POINT ( 'NONE',  ( 6.035701987437189400E-017, 0.4928524691069688900, -0.1158166794191962500 ) ) ;
#147 = AXIS2_PLACEMENT_3D ( 'NONE', #249, #65, #115 ) ;
#148 = PERSON_AND_ORGANIZATION ( #123, #138 ) ;
#149 = ORIENTED_EDGE ( 'NONE', *, *, #261, .F. ) ;
#150 = CARTESIAN_POINT ( 'NONE',  ( 6.123233995736766000E-017, 0.5000000000000001100, -0.06306106671993679000 ) ) ;
#151 = ORIENTED_EDGE ( 'NONE', *, *, #261, .T. ) ;
#152 = ADVANCED_FACE ( 'NONE', ( #111 ), #43, .T. ) ;
#153 = LOCAL_TIME ( 14, 12, 16.00000000000000000, #6 ) ;
#154 = AXIS2_PLACEMENT_3D ( 'NONE', #310, #228, #50 ) ;
#155 = ADVANCED_FACE ( 'NONE', ( #93 ), #132, .T. ) ;
#156 = DIRECTION ( 'NONE',  ( 0.0000000000000000000, 0.0000000000000000000, 1.000000000000000000 ) ) ;
#157 = CARTESIAN_POINT ( 'NONE',  ( 6.123233995736767300E-017, -0.5000000000000001100, 0.2058525942091573000 ) ) ;
#158 = CC_DESIGN_DATE_AND_TIME_ASSIGNMENT ( #223, #7, ( #121 ) ) ;
#159 = ORIENTED_EDGE ( 'NONE', *, *, #67, .F. ) ;
#160 = CARTESIAN_POINT ( 'NONE',  ( 6.123233995736767300E-017, 0.5000000000000001100, -0.1047338028613358400 ) ) ;
#161 = EDGE_LOOP ( 'NONE', ( #102, #151, #181, #194 ) ) ;
#162 = CIRCLE ( 'NONE', #147, 0.5000000000000000000 ) ;
#163 = EDGE_CURVE ( 'NONE', #125, #169, #135, .T. ) ;
#164 = DIRECTION ( 'NONE',  ( -0.0000000000000000000, -1.836909530733566100E-016, 1.000000000000000000 ) ) ;
#165 = PERSON_AND_ORGANIZATION ( #123, #138 ) ;
#166 = DIRECTION ( 'NONE',  ( 8.659560562354826900E-017, -0.7071067811865386900, -0.7071067811865562300 ) ) ;
#167 = CONICAL_SURFACE ( 'NONE', #254, 0.5000000000000001100, 0.7853981633974360700 ) ;
#168 = AXIS2_PLACEMENT_3D ( 'NONE', #199, #3, #179 ) ;
#169 = VERTEX_POINT ( 'NONE', #229 ) ;
#170 = COORDINATED_UNIVERSAL_TIME_OFFSET ( 5, 0, .BEHIND. ) ;
#171 = CARTESIAN_POINT ( 'NONE',  ( 0.0000000000000000000, 6.829619984160658000E-017, 0.9915452324926615800 ) ) ;
#172 = ORIENTED_EDGE ( 'NONE', *, *, #28, .T. ) ;
#173 = ORIENTED_EDGE ( 'NONE', *, *, #83, .T. ) ;
#174 = CARTESIAN_POINT ( 'NONE',  ( 0.0000000000000000000, 6.829619984160658000E-017, 0.9915452324926615800 ) ) ;
#175 = CARTESIAN_POINT ( 'NONE',  ( 0.0000000000000000000, 1.889919317109578400E-017, 0.2058525942091573900 ) ) ;
#176 = CARTESIAN_POINT ( 'NONE',  ( 0.0000000000000000000, 6.829619984160658000E-017, 0.5194979883981736300 ) ) ;
#177 = AXIS2_PLACEMENT_3D ( 'NONE', #139, #144, #134 ) ;
#178 = ORIENTED_EDGE ( 'NONE', *, *, #114, .F. ) ;
#179 = DIRECTION ( 'NONE',  ( 0.0000000000000000000, -1.000000000000000000, -1.732166422067359700E-016 ) ) ;
#180 = CARTESIAN_POINT ( 'NONE',  ( 0.0000000000000000000, -0.5000000000000001100, 0.2058525942091573000 ) ) ;
#181 = ORIENTED_EDGE ( 'NONE', *, *, #114, .T. ) ;
#182 = VECTOR ( 'NONE', #283, 39.37007874015748100 ) ;
#183 = APPROVAL ( #23, 'UNSPECIFIED' ) ;
#184 = CIRCLE ( 'NONE', #104, 0.5000000000000001100 ) ;
#185 = DIRECTION ( 'NONE',  ( -1.000000000000000000, 0.0000000000000000000, 0.0000000000000000000 ) ) ;
#186 = EDGE_CURVE ( 'NONE', #125, #92, #252, .T. ) ;
#187 = EDGE_LOOP ( 'NONE', ( #29, #238, #70 ) ) ;
#188 = DIRECTION ( 'NONE',  ( -1.224646799147353200E-016, -1.000000000000000000, 0.0000000000000000000 ) ) ;
#189 = EDGE_LOOP ( 'NONE', ( #5, #214, #61 ) ) ;
#190 =( GEOMETRIC_REPRESENTATION_CONTEXT ( 3 ) GLOBAL_UNCERTAINTY_ASSIGNED_CONTEXT ( ( #27 ) ) GLOBAL_UNIT_ASSIGNED_CONTEXT ( ( #198, #85, #299 ) ) REPRESENTATION_CONTEXT ( 'NONE', 'WORKASPACE' ) );
#191 = CARTESIAN_POINT ( 'NONE',  ( 0.0000000000000000000, 0.4944322300693974600, 0.2114203641397603400 ) ) ;
#192 = DIRECTION ( 'NONE',  ( 0.0000000000000000000, -1.000000000000000000, -1.707404996040164500E-016 ) ) ;
#193 = ADVANCED_BREP_SHAPE_REPRESENTATION ( '22000-E0W', ( #210, #247 ), #190 ) ;
#194 = ORIENTED_EDGE ( 'NONE', *, *, #273, .F. ) ;
#195 = COORDINATED_UNIVERSAL_TIME_OFFSET ( 5, 0, .BEHIND. ) ;
#196 =( LENGTH_UNIT ( ) NAMED_UNIT ( * ) SI_UNIT ( $, .METRE. ) );
#197 = AXIS2_PLACEMENT_3D ( 'NONE', #176, #185, #271 ) ;
#198 =( CONVERSION_BASED_UNIT ( 'INCH', #311 ) LENGTH_UNIT ( ) NAMED_UNIT ( #35 ) );
#199 = CARTESIAN_POINT ( 'NONE',  ( 0.0000000000000000000, 2.717085648378298600E-016, -0.1158166794191964200 ) ) ;
#200 = CC_DESIGN_APPROVAL ( #183, ( #121 ) ) ;
#201 = MECHANICAL_CONTEXT ( 'NONE', #53, 'mechanical' ) ;
#202 = EDGE_CURVE ( 'NONE', #64, #232, #124, .T. ) ;
#203 = FACE_OUTER_BOUND ( 'NONE', #90, .T. ) ;
#204 = SHAPE_DEFINITION_REPRESENTATION ( #226, #193 ) ;
#205 = DIRECTION ( 'NONE',  ( 1.000000000000000000, 0.0000000000000000000, 0.0000000000000000000 ) ) ;
#206 = CARTESIAN_POINT ( 'NONE',  ( 0.0000000000000000000, -0.4999999999999999400, -0.1047338028613360200 ) ) ;
#207 = CARTESIAN_POINT ( 'NONE',  ( 0.0000000000000000000, -0.4999999999999999400, -0.06306106671993698400 ) ) ;
#208 = DIRECTION ( 'NONE',  ( 0.0000000000000000000, -1.000000000000000000, -2.071958370271109500E-016 ) ) ;
#209 = DIRECTION ( 'NONE',  ( -0.0000000000000000000, -1.836909530733566100E-016, 1.000000000000000000 ) ) ;
#210 = MANIFOLD_SOLID_BREP ( '22000-001-1-solid1', #324 ) ;
#211 = AXIS2_PLACEMENT_3D ( 'NONE', #100, #108, #305 ) ;
#212 = DIRECTION ( 'NONE',  ( 0.0000000000000000000, 1.836909530733566100E-016, -1.000000000000000000 ) ) ;
#213 = CC_DESIGN_SECURITY_CLASSIFICATION ( #121, ( #32 ) ) ;
#214 = ORIENTED_EDGE ( 'NONE', *, *, #202, .T. ) ;
#215 = LINE ( 'NONE', #150, #105 ) ;
#216 = CIRCLE ( 'NONE', #58, 0.4928524691069688900 ) ;
#217 = EDGE_CURVE ( 'NONE', #64, #293, #13, .T. ) ;
#218 = CARTESIAN_POINT ( 'NONE',  ( 0.0000000000000000000, 7.595110446059470400E-017, -0.1047338028613359200 ) ) ;
#219 = PERSON_AND_ORGANIZATION ( #123, #138 ) ;
#220 = DIRECTION ( 'NONE',  ( -0.0000000000000000000, -1.836909530733563400E-016, 1.000000000000000000 ) ) ;
#221 = APPLICATION_PROTOCOL_DEFINITION ( 'international standard', 'config_control_design', 1994, #15 ) ;
#222 = SECURITY_CLASSIFICATION_LEVEL ( 'unclassified' ) ;
#223 = DATE_AND_TIME ( #327, #88 ) ;
#224 = AXIS2_PLACEMENT_3D ( 'NONE', #255, #52, #40 ) ;
#225 = PRODUCT_RELATED_PRODUCT_CATEGORY ( 'detail', '', ( #60 ) ) ;
#226 = PRODUCT_DEFINITION_SHAPE ( 'NONE', 'NONE',  #277 ) ;
#227 = EDGE_CURVE ( 'NONE', #232, #293, #234, .T. ) ;
#228 = DIRECTION ( 'NONE',  ( -0.0000000000000000000, -1.836909530733563400E-016, 1.000000000000000000 ) ) ;
#229 = CARTESIAN_POINT ( 'NONE',  ( 0.0000000000000000000, -0.4928524691069683400, -0.1158166794191964900 ) ) ;
#230 = DATE_AND_TIME ( #256, #4 ) ;
#231 = ORIENTED_EDGE ( 'NONE', *, *, #46, .T. ) ;
#232 = VERTEX_POINT ( 'NONE', #191 ) ;
#233 = APPROVAL_DATE_TIME ( #250, #183 ) ;
#234 = CIRCLE ( 'NONE', #41, 0.4944322300693972900 ) ;
#235 = CARTESIAN_POINT ( 'NONE',  ( 0.0000000000000000000, 1.889919317109578400E-017, 0.2058525942091573900 ) ) ;
#236 = ORIENTED_EDGE ( 'NONE', *, *, #28, .F. ) ;
#237 = AXIS2_PLACEMENT_3D ( 'NONE', #218, #220, #192 ) ;
#238 = ORIENTED_EDGE ( 'NONE', *, *, #163, .T. ) ;
#239 = APPROVAL_ROLE ( '' ) ;
#240 = EDGE_CURVE ( 'NONE', #169, #92, #216, .T. ) ;
#241 = FACE_OUTER_BOUND ( 'NONE', #276, .T. ) ;
#242 = EDGE_LOOP ( 'NONE', ( #236, #265, #173, #281 ) ) ;
#243 = DIRECTION ( 'NONE',  ( -0.0000000000000000000, -1.836909530733566100E-016, 1.000000000000000000 ) ) ;
#244 = PERSON_AND_ORGANIZATION ( #123, #138 ) ;
#245 = FACE_OUTER_BOUND ( 'NONE', #242, .T. ) ;
#246 = CARTESIAN_POINT ( 'NONE',  ( -6.055048479497753200E-017, -0.4944322300693972900, 0.2114203641397601800 ) ) ;
#247 = AXIS2_PLACEMENT_3D ( 'NONE', #11, #156, #306 ) ;
#248 = PERSON_AND_ORGANIZATION_ROLE ( 'creator' ) ;
#249 = CARTESIAN_POINT ( 'NONE',  ( 0.0000000000000000000, 7.595110446059467900E-017, -0.1047338028613359200 ) ) ;
#250 = DATE_AND_TIME ( #54, #307 ) ;
#251 = CARTESIAN_POINT ( 'NONE',  ( 0.0000000000000000000, 6.829619984160658000E-017, 0.9915452324926615800 ) ) ;
#252 = CIRCLE ( 'NONE', #316, 1.212086614173228500 ) ;
#253 = CIRCLE ( 'NONE', #168, 0.4928524691069688900 ) ;
#254 = AXIS2_PLACEMENT_3D ( 'NONE', #175, #212, #318 ) ;
#255 = CARTESIAN_POINT ( 'NONE',  ( 0.0000000000000000000, 1.889919317109578400E-017, 0.2058525942091573900 ) ) ;
#256 = CALENDAR_DATE ( 2018, 1, 6 ) ;
#257 = CARTESIAN_POINT ( 'NONE',  ( 0.0000000000000000000, 1.787644420605017400E-017, 0.2114203641397602900 ) ) ;
#258 = EDGE_LOOP ( 'NONE', ( #18, #26, #159, #178 ) ) ;
#259 = SPHERICAL_SURFACE ( 'NONE', #197, 0.5825590551181104600 ) ;
#260 = EDGE_LOOP ( 'NONE', ( #320, #45, #39 ) ) ;
#261 = EDGE_CURVE ( 'NONE', #312, #289, #119, .T. ) ;
#262 = LINE ( 'NONE', #157, #329 ) ;
#263 = CC_DESIGN_PERSON_AND_ORGANIZATION_ASSIGNMENT ( #165, #12, ( #60 ) ) ;
#264 = DATE_AND_TIME ( #304, #153 ) ;
#265 = ORIENTED_EDGE ( 'NONE', *, *, #227, .F. ) ;
#266 = ADVANCED_FACE ( 'NONE', ( #272 ), #126, .T. ) ;
#267 = AXIS2_PLACEMENT_3D ( 'NONE', #137, #131, #72 ) ;
#268 = ADVANCED_FACE ( 'NONE', ( #89 ), #82, .T. ) ;
#269 = APPLICATION_PROTOCOL_DEFINITION ( 'international standard', 'config_control_design', 1994, #53 ) ;
#270 = APPROVAL_ROLE ( '' ) ;
#271 = DIRECTION ( 'NONE',  ( 0.0000000000000000000, 1.000000000000000000, 2.344696189736847300E-016 ) ) ;
#272 = FACE_OUTER_BOUND ( 'NONE', #258, .T. ) ;
#273 = EDGE_CURVE ( 'NONE', #55, #300, #184, .T. ) ;
#274 = APPROVAL_DATE_TIME ( #230, #51 ) ;
#275 = ORIENTED_EDGE ( 'NONE', *, *, #83, .F. ) ;
#276 = EDGE_LOOP ( 'NONE', ( #145, #172, #129, #275 ) ) ;
#277 = PRODUCT_DEFINITION ( 'UNKNOWN', '', #32, #36 ) ;
#278 = CARTESIAN_POINT ( 'NONE',  ( 0.0000000000000000000, -0.4999999999999999400, -0.1047338028613360200 ) ) ;
#279 = ORIENTED_EDGE ( 'NONE', *, *, #240, .F. ) ;
#280 = LINE ( 'NONE', #122, #291 ) ;
#281 = ORIENTED_EDGE ( 'NONE', *, *, #273, .T. ) ;
#282 = DIRECTION ( 'NONE',  ( 0.0000000000000000000, -1.000000000000000000, -1.707404996040164500E-016 ) ) ;
#283 = DIRECTION ( 'NONE',  ( 0.0000000000000000000, -0.5419816535408423800, 0.8403903183789865900 ) ) ;
#284 = PERSON_AND_ORGANIZATION_ROLE ( 'design_supplier' ) ;
#285 = AXIS2_PLACEMENT_3D ( 'NONE', #251, #205, #141 ) ;
#286 = LINE ( 'NONE', #207, #44 ) ;
#287 = DIRECTION ( 'NONE',  ( -0.0000000000000000000, -1.836909530733563400E-016, 1.000000000000000000 ) ) ;
#288 = CARTESIAN_POINT ( 'NONE',  ( 0.0000000000000000000, 7.595110446059467900E-017, -0.1047338028613359200 ) ) ;
#289 = VERTEX_POINT ( 'NONE', #278 ) ;
#290 = CARTESIAN_POINT ( 'NONE',  ( 0.0000000000000000000, 6.829619984160658000E-017, -0.06306106671993688700 ) ) ;
#291 = VECTOR ( 'NONE', #103, 39.37007874015748900 ) ;
#292 = EDGE_CURVE ( 'NONE', #289, #312, #162, .T. ) ;
#293 = VERTEX_POINT ( 'NONE', #246 ) ;
#294 = DIRECTION ( 'NONE',  ( 0.0000000000000000000, -1.000000000000000000, -1.732166422067359700E-016 ) ) ;
#295 = DIRECTION ( 'NONE',  ( 0.0000000000000000000, 1.836909530733563400E-016, -1.000000000000000000 ) ) ;
#296 = CARTESIAN_POINT ( 'NONE',  ( 0.0000000000000000000, 2.109784820060013800E-016, -0.06306106671993685900 ) ) ;
#297 = APPROVAL ( #19, 'UNSPECIFIED' ) ;
#298 = CARTESIAN_POINT ( 'NONE',  ( 0.0000000000000000000, 2.717085648378298600E-016, -0.1158166794191964200 ) ) ;
#299 =( NAMED_UNIT ( * ) SI_UNIT ( $, .STERADIAN. ) SOLID_ANGLE_UNIT ( ) );
#300 = VERTEX_POINT ( 'NONE', #180 ) ;
#301 = APPROVAL_ROLE ( '' ) ;
#302 = AXIS2_PLACEMENT_3D ( 'NONE', #171, #143, #113 ) ;
#303 = DIRECTION ( 'NONE',  ( 1.000000000000000000, 0.0000000000000000000, 0.0000000000000000000 ) ) ;
#304 = CALENDAR_DATE ( 2018, 1, 6 ) ;
#305 = DIRECTION ( 'NONE',  ( 0.0000000000000000000, 1.000000000000000000, 2.344696189736847300E-016 ) ) ;
#306 = DIRECTION ( 'NONE',  ( 1.000000000000000000, 0.0000000000000000000, 0.0000000000000000000 ) ) ;
#307 = LOCAL_TIME ( 14, 12, 16.00000000000000000, #68 ) ;
#308 = ORIENTED_EDGE ( 'NONE', *, *, #322, .F. ) ;
#309 = EDGE_CURVE ( 'NONE', #92, #312, #280, .T. ) ;
#310 = CARTESIAN_POINT ( 'NONE',  ( 0.0000000000000000000, 7.595110446059470400E-017, -0.1047338028613359200 ) ) ;
#311 = LENGTH_MEASURE_WITH_UNIT ( LENGTH_MEASURE( 0.02539999999999999900 ), #196 );
#312 = VERTEX_POINT ( 'NONE', #160 ) ;
#313 = CC_DESIGN_APPROVAL ( #297, ( #277 ) ) ;
#314 = DIRECTION ( 'NONE',  ( -0.0000000000000000000, -1.836909530733566100E-016, 1.000000000000000000 ) ) ;
#315 = DIRECTION ( 'NONE',  ( 0.0000000000000000000, 0.7071067811865389100, -0.7071067811865560100 ) ) ;
#316 = AXIS2_PLACEMENT_3D ( 'NONE', #109, #106, #57 ) ;
#317 = PERSON_AND_ORGANIZATION ( #123, #138 ) ;
#318 = DIRECTION ( 'NONE',  ( 0.0000000000000000000, 1.000000000000000000, 2.048885995248196900E-016 ) ) ;
#319 = CARTESIAN_POINT ( 'NONE',  ( 0.0000000000000000000, 6.829619984160658000E-017, 0.5194979883981736300 ) ) ;
#320 = ORIENTED_EDGE ( 'NONE', *, *, #202, .F. ) ;
#321 = SPHERICAL_SURFACE ( 'NONE', #211, 0.5825590551181104600 ) ;
#322 = EDGE_CURVE ( 'NONE', #92, #169, #253, .T. ) ;
#323 = CARTESIAN_POINT ( 'NONE',  ( 0.0000000000000000000, 0.5000000000000001100, 0.2058525942091575000 ) ) ;
#324 = CLOSED_SHELL ( 'NONE', ( #16, #127, #266, #152, #47, #21, #268, #94, #71, #155 ) ) ;
#325 = ORIENTED_EDGE ( 'NONE', *, *, #292, .F. ) ;
#326 = CC_DESIGN_PERSON_AND_ORGANIZATION_ASSIGNMENT ( #62, #112, ( #277 ) ) ;
#327 = CALENDAR_DATE ( 2018, 1, 6 ) ;
#328 = DIRECTION ( 'NONE',  ( 0.0000000000000000000, -1.000000000000000000, -2.071958370271109500E-016 ) ) ;
#329 = VECTOR ( 'NONE', #166, 39.37007874015748900 ) ;
#330 = CARTESIAN_POINT ( 'NONE',  ( 0.0000000000000000000, 2.167266455897149500E-016, -0.2205413816805669200 ) ) ;
ENDSEC;
END-ISO-10303-21;
