ISO-10303-21;
HEADER;
FILE_DESCRIPTION (( 'STEP AP203' ),
    '1' );
FILE_NAME ('Web Model 34602_13363.step',
    '2020-11-04T13:32:38',
    ( '' ),
    ( '' ),
    'SwSTEP 2.0',
    'SolidWorks 2018',
    '' );
FILE_SCHEMA (( 'CONFIG_CONTROL_DESIGN' ));
ENDSEC;

DATA;
#1 = CALENDAR_DATE ( 2020, 4, 11 ) ;
#2 = PRODUCT_RELATED_PRODUCT_CATEGORY ( 'detail', '', ( #100 ) ) ;
#3 = LOCAL_TIME ( 8, 32, 38.00000000000000000, #74 ) ;
#4 = CARTESIAN_POINT ( 'NONE',  ( 0.0000000000000000000, 0.0000000000000000000, -3.000000000000000000 ) ) ;
#5 = EDGE_LOOP ( 'NONE', ( #128, #80, #97, #75 ) ) ;
#6 = CC_DESIGN_PERSON_AND_ORGANIZATION_ASSIGNMENT ( #89, #42, ( #26 ) ) ;
#7 = CARTESIAN_POINT ( 'NONE',  ( 0.0000000000000000000, 0.0000000000000000000, 3.000000000000000000 ) ) ;
#8 = APPROVAL_ROLE ( '' ) ;
#9 = PLANE ( 'NONE',  #138 ) ;
#10 = DIRECTION ( 'NONE',  ( 1.000000000000000000, 0.0000000000000000000, 0.0000000000000000000 ) ) ;
#11 = ADVANCED_FACE ( 'NONE', ( #85 ), #17, .T. ) ;
#12 = APPLICATION_PROTOCOL_DEFINITION ( 'international standard', 'config_control_design', 1994, #32 ) ;
#13 = PERSON_AND_ORGANIZATION ( #84, #24 ) ;
#14 = CALENDAR_DATE ( 2020, 4, 11 ) ;
#15 = PERSON_AND_ORGANIZATION ( #84, #24 ) ;
#16 = APPROVAL ( #102, 'UNSPECIFIED' ) ;
#17 = CYLINDRICAL_SURFACE ( 'NONE', #121, 25.00000000000000000 ) ;
#18 = DIRECTION ( 'NONE',  ( 1.000000000000000000, 0.0000000000000000000, -0.0000000000000000000 ) ) ;
#19 = DATE_AND_TIME ( #47, #53 ) ;
#20 =( NAMED_UNIT ( * ) SI_UNIT ( $, .STERADIAN. ) SOLID_ANGLE_UNIT ( ) );
#21 = PERSON_AND_ORGANIZATION_ROLE ( 'design_supplier' ) ;
#22 = DATE_TIME_ROLE ( 'creation_date' ) ;
#23 = CC_DESIGN_APPROVAL ( #152, ( #26 ) ) ;
#24 = ORGANIZATION ( 'UNSPECIFIED', 'UNSPECIFIED', '' ) ;
#25 = CIRCLE ( 'NONE', #66, 25.00000000000000000 ) ;
#26 = SECURITY_CLASSIFICATION ( '', '', #135 ) ;
#27 = CYLINDRICAL_SURFACE ( 'NONE', #168, 25.00000000000000000 ) ;
#28 = EDGE_LOOP ( 'NONE', ( #44, #166, #48, #115 ) ) ;
#29 = AXIS2_PLACEMENT_3D ( 'NONE', #71, #50, #167 ) ;
#30 = DIRECTION ( 'NONE',  ( 0.0000000000000000000, 0.0000000000000000000, 1.000000000000000000 ) ) ;
#31 = LOCAL_TIME ( 8, 32, 38.00000000000000000, #64 ) ;
#32 = APPLICATION_CONTEXT ( 'configuration controlled 3d designs of mechanical parts and assemblies' ) ;
#33 = EDGE_CURVE ( 'NONE', #60, #107, #25, .T. ) ;
#34 = PERSON_AND_ORGANIZATION ( #84, #24 ) ;
#35 = EDGE_CURVE ( 'NONE', #77, #107, #163, .T. ) ;
#36 = CIRCLE ( 'NONE', #90, 25.00000000000000000 ) ;
#37 = DIRECTION ( 'NONE',  ( 0.0000000000000000000, 0.0000000000000000000, 1.000000000000000000 ) ) ;
#38 = AXIS2_PLACEMENT_3D ( 'NONE', #54, #96, #117 ) ;
#39 = PERSON_AND_ORGANIZATION ( #84, #24 ) ;
#40 = ADVANCED_FACE ( 'NONE', ( #125 ), #169, .F. ) ;
#41 = CARTESIAN_POINT ( 'NONE',  ( 0.0000000000000000000, 0.0000000000000000000, 3.000000000000000000 ) ) ;
#42 = PERSON_AND_ORGANIZATION_ROLE ( 'classification_officer' ) ;
#43 = VECTOR ( 'NONE', #99, 1000.000000000000000 ) ;
#44 = ORIENTED_EDGE ( 'NONE', *, *, #113, .F. ) ;
#45 = CC_DESIGN_PERSON_AND_ORGANIZATION_ASSIGNMENT ( #59, #21, ( #137 ) ) ;
#46 = FACE_OUTER_BOUND ( 'NONE', #28, .T. ) ;
#47 = CALENDAR_DATE ( 2020, 4, 11 ) ;
#48 = ORIENTED_EDGE ( 'NONE', *, *, #35, .T. ) ;
#49 = EDGE_LOOP ( 'NONE', ( #151, #105 ) ) ;
#50 = DIRECTION ( 'NONE',  ( 0.0000000000000000000, 0.0000000000000000000, 1.000000000000000000 ) ) ;
#51 = CARTESIAN_POINT ( 'NONE',  ( 0.0000000000000000000, 0.0000000000000000000, -3.000000000000000000 ) ) ;
#52 = EDGE_CURVE ( 'NONE', #107, #60, #68, .T. ) ;
#53 = LOCAL_TIME ( 8, 32, 38.00000000000000000, #122 ) ;
#54 = CARTESIAN_POINT ( 'NONE',  ( 0.0000000000000000000, 0.0000000000000000000, -3.000000000000000000 ) ) ;
#55 = PERSON_AND_ORGANIZATION_ROLE ( 'creator' ) ;
#56 = DIRECTION ( 'NONE',  ( -0.0000000000000000000, -0.0000000000000000000, -1.000000000000000000 ) ) ;
#57 = DIRECTION ( 'NONE',  ( 1.000000000000000000, 0.0000000000000000000, 0.0000000000000000000 ) ) ;
#58 = MECHANICAL_CONTEXT ( 'NONE', #32, 'mechanical' ) ;
#59 = PERSON_AND_ORGANIZATION ( #84, #24 ) ;
#60 = VERTEX_POINT ( 'NONE', #67 ) ;
#61 = PERSON_AND_ORGANIZATION ( #84, #24 ) ;
#62 = APPROVAL_DATE_TIME ( #139, #152 ) ;
#63 = EDGE_CURVE ( 'NONE', #77, #154, #36, .T. ) ;
#64 = COORDINATED_UNIVERSAL_TIME_OFFSET ( 5, 0, .BEHIND. ) ;
#65 = CARTESIAN_POINT ( 'NONE',  ( -25.00000000000000000, 0.0000000000000000000, 3.000000000000000000 ) ) ;
#66 = AXIS2_PLACEMENT_3D ( 'NONE', #51, #37, #153 ) ;
#67 = CARTESIAN_POINT ( 'NONE',  ( 25.00000000000000000, 3.061616997868383043E-15, -3.000000000000000000 ) ) ;
#68 = CIRCLE ( 'NONE', #38, 25.00000000000000000 ) ;
#69 = EDGE_LOOP ( 'NONE', ( #136, #110 ) ) ;
#70 = PERSON_AND_ORGANIZATION_ROLE ( 'design_owner' ) ;
#71 = CARTESIAN_POINT ( 'NONE',  ( 0.0000000000000000000, 0.0000000000000000000, 3.000000000000000000 ) ) ;
#72 = CARTESIAN_POINT ( 'NONE',  ( -25.00000000000000000, 0.0000000000000000000, -3.000000000000000000 ) ) ;
#73 = DATE_TIME_ROLE ( 'classification_date' ) ;
#74 = COORDINATED_UNIVERSAL_TIME_OFFSET ( 5, 0, .BEHIND. ) ;
#75 = ORIENTED_EDGE ( 'NONE', *, *, #35, .F. ) ;
#76 = VECTOR ( 'NONE', #155, 1000.000000000000000 ) ;
#77 = VERTEX_POINT ( 'NONE', #65 ) ;
#78 = DIRECTION ( 'NONE',  ( -1.000000000000000000, 0.0000000000000000000, 0.0000000000000000000 ) ) ;
#79 = PERSON_AND_ORGANIZATION ( #84, #24 ) ;
#80 = ORIENTED_EDGE ( 'NONE', *, *, #113, .T. ) ;
#81 = DIRECTION ( 'NONE',  ( 0.0000000000000000000, 0.0000000000000000000, 1.000000000000000000 ) ) ;
#82 = DIRECTION ( 'NONE',  ( -1.000000000000000000, 0.0000000000000000000, 0.0000000000000000000 ) ) ;
#83 = FACE_OUTER_BOUND ( 'NONE', #49, .T. ) ;
#84 = PERSON ( 'UNSPECIFIED', 'UNSPECIFIED', 'UNSPECIFIED', ('UNSPECIFIED'), ('UNSPECIFIED'), ('UNSPECIFIED') ) ;
#85 = FACE_OUTER_BOUND ( 'NONE', #5, .T. ) ;
#86 = PRODUCT_DEFINITION ( 'UNKNOWN', '', #137, #123 ) ;
#87 = ADVANCED_BREP_SHAPE_REPRESENTATION ( 'Web Model 34602_13363', ( #150, #118 ), #172 ) ;
#88 = CC_DESIGN_DATE_AND_TIME_ASSIGNMENT ( #106, #22, ( #86 ) ) ;
#89 = PERSON_AND_ORGANIZATION ( #84, #24 ) ;
#90 = AXIS2_PLACEMENT_3D ( 'NONE', #144, #30, #57 ) ;
#91 = CLOSED_SHELL ( 'NONE', ( #11, #132, #101, #40 ) ) ;
#92 = APPROVAL_PERSON_ORGANIZATION ( #13, #16, #8 ) ;
#93 = CARTESIAN_POINT ( 'NONE',  ( -25.00000000000000000, 0.0000000000000000000, 3.000000000000000000 ) ) ;
#94 = CC_DESIGN_PERSON_AND_ORGANIZATION_ASSIGNMENT ( #61, #156, ( #137 ) ) ;
#95 = COORDINATED_UNIVERSAL_TIME_OFFSET ( 5, 0, .BEHIND. ) ;
#96 = DIRECTION ( 'NONE',  ( 0.0000000000000000000, 0.0000000000000000000, 1.000000000000000000 ) ) ;
#97 = ORIENTED_EDGE ( 'NONE', *, *, #33, .T. ) ;
#98 = APPROVAL_ROLE ( '' ) ;
#99 = DIRECTION ( 'NONE',  ( -0.0000000000000000000, -0.0000000000000000000, -1.000000000000000000 ) ) ;
#100 = PRODUCT ( 'Web Model 34602_13363', 'Web Model 34602_13363', '', ( #58 ) ) ;
#101 = ADVANCED_FACE ( 'NONE', ( #83 ), #9, .T. ) ;
#102 = APPROVAL_STATUS ( 'not_yet_approved' ) ;
#103 = APPROVAL_DATE_TIME ( #141, #145 ) ;
#104 = LOCAL_TIME ( 8, 32, 38.00000000000000000, #95 ) ;
#105 = ORIENTED_EDGE ( 'NONE', *, *, #130, .T. ) ;
#106 = DATE_AND_TIME ( #148, #3 ) ;
#107 = VERTEX_POINT ( 'NONE', #72 ) ;
#108 = CC_DESIGN_PERSON_AND_ORGANIZATION_ASSIGNMENT ( #34, #55, ( #86 ) ) ;
#109 = COORDINATED_UNIVERSAL_TIME_OFFSET ( 5, 0, .BEHIND. ) ;
#110 = ORIENTED_EDGE ( 'NONE', *, *, #33, .F. ) ;
#111 = APPROVAL_DATE_TIME ( #114, #16 ) ;
#112 = PRODUCT_DEFINITION_SHAPE ( 'NONE', 'NONE',  #86 ) ;
#113 = EDGE_CURVE ( 'NONE', #154, #60, #158, .T. ) ;
#114 = DATE_AND_TIME ( #14, #165 ) ;
#115 = ORIENTED_EDGE ( 'NONE', *, *, #52, .T. ) ;
#116 =( LENGTH_UNIT ( ) NAMED_UNIT ( * ) SI_UNIT ( .MILLI., .METRE. ) );
#117 = DIRECTION ( 'NONE',  ( 1.000000000000000000, 0.0000000000000000000, 0.0000000000000000000 ) ) ;
#118 = AXIS2_PLACEMENT_3D ( 'NONE', #170, #147, #10 ) ;
#119 = CC_DESIGN_APPROVAL ( #145, ( #137 ) ) ;
#120 = CIRCLE ( 'NONE', #29, 25.00000000000000000 ) ;
#121 = AXIS2_PLACEMENT_3D ( 'NONE', #7, #129, #78 ) ;
#122 = COORDINATED_UNIVERSAL_TIME_OFFSET ( 5, 0, .BEHIND. ) ;
#123 = DESIGN_CONTEXT ( 'detailed design', #160, 'design' ) ;
#124 = CC_DESIGN_APPROVAL ( #16, ( #86 ) ) ;
#125 = FACE_OUTER_BOUND ( 'NONE', #69, .T. ) ;
#126 = UNCERTAINTY_MEASURE_WITH_UNIT (LENGTH_MEASURE( 1.000000000000000082E-05 ), #116, 'distance_accuracy_value', 'NONE');
#127 = APPROVAL_PERSON_ORGANIZATION ( #15, #145, #98 ) ;
#128 = ORIENTED_EDGE ( 'NONE', *, *, #130, .F. ) ;
#129 = DIRECTION ( 'NONE',  ( -0.0000000000000000000, -0.0000000000000000000, -1.000000000000000000 ) ) ;
#130 = EDGE_CURVE ( 'NONE', #154, #77, #120, .T. ) ;
#131 = CARTESIAN_POINT ( 'NONE',  ( 25.00000000000000000, 3.061616997868383043E-15, 3.000000000000000000 ) ) ;
#132 = ADVANCED_FACE ( 'NONE', ( #46 ), #27, .T. ) ;
#133 = DIRECTION ( 'NONE',  ( 1.000000000000000000, 0.0000000000000000000, -0.0000000000000000000 ) ) ;
#134 = APPROVAL_STATUS ( 'not_yet_approved' ) ;
#135 = SECURITY_CLASSIFICATION_LEVEL ( 'unclassified' ) ;
#136 = ORIENTED_EDGE ( 'NONE', *, *, #52, .F. ) ;
#137 = PRODUCT_DEFINITION_FORMATION_WITH_SPECIFIED_SOURCE ( 'ANY', '', #100, .NOT_KNOWN. ) ;
#138 = AXIS2_PLACEMENT_3D ( 'NONE', #159, #146, #133 ) ;
#139 = DATE_AND_TIME ( #175, #104 ) ;
#140 =( NAMED_UNIT ( * ) PLANE_ANGLE_UNIT ( ) SI_UNIT ( $, .RADIAN. ) );
#141 = DATE_AND_TIME ( #1, #31 ) ;
#142 = CC_DESIGN_DATE_AND_TIME_ASSIGNMENT ( #19, #73, ( #26 ) ) ;
#143 = APPROVAL_PERSON_ORGANIZATION ( #79, #152, #161 ) ;
#144 = CARTESIAN_POINT ( 'NONE',  ( 0.0000000000000000000, 0.0000000000000000000, 3.000000000000000000 ) ) ;
#145 = APPROVAL ( #171, 'UNSPECIFIED' ) ;
#146 = DIRECTION ( 'NONE',  ( 0.0000000000000000000, 0.0000000000000000000, 1.000000000000000000 ) ) ;
#147 = DIRECTION ( 'NONE',  ( 0.0000000000000000000, 0.0000000000000000000, 1.000000000000000000 ) ) ;
#148 = CALENDAR_DATE ( 2020, 4, 11 ) ;
#149 = APPLICATION_PROTOCOL_DEFINITION ( 'international standard', 'config_control_design', 1994, #160 ) ;
#150 = MANIFOLD_SOLID_BREP ( 'Boss-Extrude1', #91 ) ;
#151 = ORIENTED_EDGE ( 'NONE', *, *, #63, .T. ) ;
#152 = APPROVAL ( #134, 'UNSPECIFIED' ) ;
#153 = DIRECTION ( 'NONE',  ( 1.000000000000000000, 0.0000000000000000000, 0.0000000000000000000 ) ) ;
#154 = VERTEX_POINT ( 'NONE', #157 ) ;
#155 = DIRECTION ( 'NONE',  ( -0.0000000000000000000, -0.0000000000000000000, -1.000000000000000000 ) ) ;
#156 = PERSON_AND_ORGANIZATION_ROLE ( 'creator' ) ;
#157 = CARTESIAN_POINT ( 'NONE',  ( 25.00000000000000000, 3.061616997868383043E-15, 3.000000000000000000 ) ) ;
#158 = LINE ( 'NONE', #131, #43 ) ;
#159 = CARTESIAN_POINT ( 'NONE',  ( 0.0000000000000000000, 0.0000000000000000000, 3.000000000000000000 ) ) ;
#160 = APPLICATION_CONTEXT ( 'configuration controlled 3d designs of mechanical parts and assemblies' ) ;
#161 = APPROVAL_ROLE ( '' ) ;
#162 = SHAPE_DEFINITION_REPRESENTATION ( #112, #87 ) ;
#163 = LINE ( 'NONE', #93, #76 ) ;
#164 = AXIS2_PLACEMENT_3D ( 'NONE', #4, #81, #18 ) ;
#165 = LOCAL_TIME ( 8, 32, 38.00000000000000000, #109 ) ;
#166 = ORIENTED_EDGE ( 'NONE', *, *, #63, .F. ) ;
#167 = DIRECTION ( 'NONE',  ( 1.000000000000000000, 0.0000000000000000000, 0.0000000000000000000 ) ) ;
#168 = AXIS2_PLACEMENT_3D ( 'NONE', #41, #56, #82 ) ;
#169 = PLANE ( 'NONE',  #164 ) ;
#170 = CARTESIAN_POINT ( 'NONE',  ( 0.0000000000000000000, 0.0000000000000000000, 0.0000000000000000000 ) ) ;
#171 = APPROVAL_STATUS ( 'not_yet_approved' ) ;
#172 =( GEOMETRIC_REPRESENTATION_CONTEXT ( 3 ) GLOBAL_UNCERTAINTY_ASSIGNED_CONTEXT ( ( #126 ) ) GLOBAL_UNIT_ASSIGNED_CONTEXT ( ( #116, #140, #20 ) ) REPRESENTATION_CONTEXT ( 'NONE', 'WORKASPACE' ) );
#173 = CC_DESIGN_SECURITY_CLASSIFICATION ( #26, ( #137 ) ) ;
#174 = CC_DESIGN_PERSON_AND_ORGANIZATION_ASSIGNMENT ( #39, #70, ( #100 ) ) ;
#175 = CALENDAR_DATE ( 2020, 4, 11 ) ;
ENDSEC;
END-ISO-10303-21;
