ISO-10303-21;
HEADER;
FILE_DESCRIPTION (( 'STEP AP203' ),
    '1' );
FILE_NAME ('Web Model 47009.STEP',
    '2017-02-01T19:11:36',
    ( '' ),
    ( '' ),
    'SwSTEP 2.0',
    'SolidWorks 2016',
    '' );
FILE_SCHEMA (( 'CONFIG_CONTROL_DESIGN' ));
ENDSEC;

DATA;
#1 = AXIS2_PLACEMENT_3D ( 'NONE', #113, #80, #6 ) ;
#2 = ORIENTED_EDGE ( 'NONE', *, *, #95, .T. ) ;
#3 = APPROVAL_ROLE ( '' ) ;
#4 = COORDINATED_UNIVERSAL_TIME_OFFSET ( 5, 0, .BEHIND. ) ;
#5 = MANIFOLD_SOLID_BREP ( '25x25 Right Angle Prism Master-1-solid1', #49 ) ;
#6 = DIRECTION ( 'NONE',  ( 1.000000000000000000, 0.0000000000000000000, 0.0000000000000000000 ) ) ;
#7 = DIRECTION ( 'NONE',  ( 5.551115123125781500E-017, 0.0000000000000000000, 1.000000000000000000 ) ) ;
#8 = DIRECTION ( 'NONE',  ( 5.551115123125781500E-017, 0.0000000000000000000, 1.000000000000000000 ) ) ;
#9 = EDGE_CURVE ( 'NONE', #218, #70, #69, .T. ) ;
#10 = CARTESIAN_POINT ( 'NONE',  ( -1.112641391681767300E-015, 17.67766952966358900, 12.50000000000000000 ) ) ;
#11 = PLANE ( 'NONE',  #179 ) ;
#12 = PRODUCT_RELATED_PRODUCT_CATEGORY ( 'detail', '', ( #26 ) ) ;
#13 = DIRECTION ( 'NONE',  ( 0.7071067811865512400, 0.7071067811865439100, 0.0000000000000000000 ) ) ;
#14 = DIRECTION ( 'NONE',  ( 5.551115123125781500E-017, 0.0000000000000000000, 1.000000000000000000 ) ) ;
#15 = VERTEX_POINT ( 'NONE', #58 ) ;
#16 = PERSON_AND_ORGANIZATION ( #297, #42 ) ;
#17 = LINE ( 'NONE', #36, #151 ) ;
#18 = COORDINATED_UNIVERSAL_TIME_OFFSET ( 5, 0, .BEHIND. ) ;
#19 = FACE_OUTER_BOUND ( 'NONE', #106, .T. ) ;
#20 = EDGE_LOOP ( 'NONE', ( #275, #209, #192 ) ) ;
#21 = FACE_OUTER_BOUND ( 'NONE', #174, .T. ) ;
#22 = PERSON_AND_ORGANIZATION ( #297, #42 ) ;
#23 = DATE_AND_TIME ( #199, #127 ) ;
#24 = EDGE_CURVE ( 'NONE', #124, #15, #93, .T. ) ;
#25 = SECURITY_CLASSIFICATION ( '', '', #53 ) ;
#26 = PRODUCT ( 'Web Model 47009', 'Web Model 47009', '', ( #208 ) ) ;
#27 = FACE_OUTER_BOUND ( 'NONE', #317, .T. ) ;
#28 = LINE ( 'NONE', #109, #90 ) ;
#29 = CARTESIAN_POINT ( 'NONE',  ( -3.469446951953614200E-015, 17.67766952966358600, -12.50000000000000000 ) ) ;
#30 = DIRECTION ( 'NONE',  ( 0.7071067811865512400, 0.7071067811865439100, 0.0000000000000000000 ) ) ;
#31 = ORIENTED_EDGE ( 'NONE', *, *, #46, .T. ) ;
#32 = VECTOR ( 'NONE', #30, 1000.000000000000000 ) ;
#33 = CC_DESIGN_DATE_AND_TIME_ASSIGNMENT ( #313, #234, ( #25 ) ) ;
#34 = DIRECTION ( 'NONE',  ( 1.000000000000000000, 6.123233995736766000E-017, -5.551115123125781500E-017 ) ) ;
#35 = CARTESIAN_POINT ( 'NONE',  ( 17.67766952966378100, 2.164890140588744600E-015, -12.50000000000000500 ) ) ;
#36 = CARTESIAN_POINT ( 'NONE',  ( -17.67766952966377800, -2.164890140588744600E-015, -12.50000000000000000 ) ) ;
#37 = CARTESIAN_POINT ( 'NONE',  ( 2.775557561562892100E-015, -17.67766952966358600, -12.50000000000000400 ) ) ;
#38 = DIRECTION ( 'NONE',  ( 0.7071067811865439100, -0.7071067811865512400, 0.0000000000000000000 ) ) ;
#39 = COORDINATED_UNIVERSAL_TIME_OFFSET ( 5, 0, .BEHIND. ) ;
#40 = ORIENTED_EDGE ( 'NONE', *, *, #9, .T. ) ;
#41 = ADVANCED_FACE ( 'NONE', ( #221 ), #236, .F. ) ;
#42 = ORGANIZATION ( 'UNSPECIFIED', 'UNSPECIFIED', '' ) ;
#43 = PERSON_AND_ORGANIZATION ( #297, #42 ) ;
#44 = DESIGN_CONTEXT ( 'detailed design', #156, 'design' ) ;
#45 = CC_DESIGN_DATE_AND_TIME_ASSIGNMENT ( #23, #161, ( #143 ) ) ;
#46 = EDGE_CURVE ( 'NONE', #48, #252, #172, .T. ) ;
#47 = VECTOR ( 'NONE', #140, 999.9999999999998900 ) ;
#48 = VERTEX_POINT ( 'NONE', #82 ) ;
#49 = CLOSED_SHELL ( 'NONE', ( #312, #176, #266, #314, #92 ) ) ;
#50 = PERSON_AND_ORGANIZATION ( #297, #42 ) ;
#51 = CLOSED_SHELL ( 'NONE', ( #268, #41, #198, #289, #220 ) ) ;
#52 = DIRECTION ( 'NONE',  ( 0.0000000000000000000, 0.0000000000000000000, 1.000000000000000000 ) ) ;
#53 = SECURITY_CLASSIFICATION_LEVEL ( 'unclassified' ) ;
#54 = ORIENTED_EDGE ( 'NONE', *, *, #74, .T. ) ;
#55 = LINE ( 'NONE', #305, #219 ) ;
#56 = PERSON_AND_ORGANIZATION ( #297, #42 ) ;
#57 = CARTESIAN_POINT ( 'NONE',  ( 17.67766952966378100, 2.164890140588744600E-015, -12.50000000000000500 ) ) ;
#58 = CARTESIAN_POINT ( 'NONE',  ( -17.67766952966378100, 0.0000000000000000000, 12.50000000000000500 ) ) ;
#59 = AXIS2_PLACEMENT_3D ( 'NONE', #258, #164, #137 ) ;
#60 = DIRECTION ( 'NONE',  ( -0.7071067811865512400, -0.7071067811865439100, 3.925231146709457600E-017 ) ) ;
#61 = DIRECTION ( 'NONE',  ( -0.7071067811865512400, 0.7071067811865439100, 0.0000000000000000000 ) ) ;
#62 = PLANE ( 'NONE',  #243 ) ;
#63 = EDGE_LOOP ( 'NONE', ( #158, #264, #65, #31 ) ) ;
#64 = DIRECTION ( 'NONE',  ( -1.000000000000000000, -6.123233995736767300E-017, -0.0000000000000000000 ) ) ;
#65 = ORIENTED_EDGE ( 'NONE', *, *, #245, .F. ) ;
#66 = FACE_OUTER_BOUND ( 'NONE', #20, .T. ) ;
#67 = LOCAL_TIME ( 14, 11, 36.00000000000000000, #4 ) ;
#68 = LINE ( 'NONE', #135, #87 ) ;
#69 = LINE ( 'NONE', #35, #306 ) ;
#70 = VERTEX_POINT ( 'NONE', #163 ) ;
#71 = APPROVAL_DATE_TIME ( #228, #157 ) ;
#72 = AXIS2_PLACEMENT_3D ( 'NONE', #144, #14, #117 ) ;
#73 = LINE ( 'NONE', #217, #247 ) ;
#74 = EDGE_CURVE ( 'NONE', #70, #180, #155, .T. ) ;
#75 = CARTESIAN_POINT ( 'NONE',  ( -1.112641391681767300E-015, 17.67766952966358900, 12.50000000000000000 ) ) ;
#76 = CARTESIAN_POINT ( 'NONE',  ( -1.112641391681767300E-015, 17.67766952966358900, -12.50000000000000000 ) ) ;
#77 = ORIENTED_EDGE ( 'NONE', *, *, #46, .F. ) ;
#78 = DIRECTION ( 'NONE',  ( 0.7071067811865512400, -0.7071067811865439100, 0.0000000000000000000 ) ) ;
#79 = EDGE_CURVE ( 'NONE', #311, #124, #68, .T. ) ;
#80 = DIRECTION ( 'NONE',  ( 0.0000000000000000000, 0.0000000000000000000, 1.000000000000000000 ) ) ;
#81 = CARTESIAN_POINT ( 'NONE',  ( 1.806530782072490300E-015, -17.67766952966358900, 12.50000000000000400 ) ) ;
#82 = CARTESIAN_POINT ( 'NONE',  ( 17.67766952966377800, 0.0000000000000000000, -12.50000000000000000 ) ) ;
#83 = DIRECTION ( 'NONE',  ( -0.7071067811865438000, 0.7071067811865512400, 3.925231146709417000E-017 ) ) ;
#84 = CARTESIAN_POINT ( 'NONE',  ( 17.67766952966377800, 0.0000000000000000000, 12.50000000000000000 ) ) ;
#85 = AXIS2_PLACEMENT_3D ( 'NONE', #29, #52, #130 ) ;
#86 = CARTESIAN_POINT ( 'NONE',  ( 4.187520012910446200E-016, -17.67766952966358900, -12.50000000000000400 ) ) ;
#87 = VECTOR ( 'NONE', #299, 1000.000000000000000 ) ;
#88 = PLANE ( 'NONE',  #166 ) ;
#89 = ORIENTED_EDGE ( 'NONE', *, *, #100, .T. ) ;
#90 = VECTOR ( 'NONE', #7, 1000.000000000000000 ) ;
#91 = DATE_AND_TIME ( #267, #67 ) ;
#92 = ADVANCED_FACE ( 'NONE', ( #105 ), #139, .T. ) ;
#93 = LINE ( 'NONE', #257, #280 ) ;
#94 = VECTOR ( 'NONE', #34, 1000.000000000000000 ) ;
#95 = EDGE_CURVE ( 'NONE', #218, #311, #259, .T. ) ;
#96 = ORIENTED_EDGE ( 'NONE', *, *, #182, .F. ) ;
#97 = VECTOR ( 'NONE', #60, 999.9999999999998900 ) ;
#98 = MANIFOLD_SOLID_BREP ( '25x25 Right Angle Prism Master-2-solid1', #51 ) ;
#99 = LINE ( 'NONE', #256, #32 ) ;
#100 = EDGE_CURVE ( 'NONE', #232, #147, #99, .T. ) ;
#101 = LOCAL_TIME ( 14, 11, 36.00000000000000000, #197 ) ;
#102 = APPROVAL_STATUS ( 'not_yet_approved' ) ;
#103 = ORIENTED_EDGE ( 'NONE', *, *, #9, .F. ) ;
#104 =( NAMED_UNIT ( * ) SI_UNIT ( $, .STERADIAN. ) SOLID_ANGLE_UNIT ( ) );
#105 = FACE_OUTER_BOUND ( 'NONE', #227, .T. ) ;
#106 = EDGE_LOOP ( 'NONE', ( #196, #77, #201, #308 ) ) ;
#107 = FACE_OUTER_BOUND ( 'NONE', #241, .T. ) ;
#108 = PLANE ( 'NONE',  #85 ) ;
#109 = CARTESIAN_POINT ( 'NONE',  ( 4.187520012910446200E-016, -17.67766952966358900, -12.50000000000000400 ) ) ;
#110 = PRODUCT_DEFINITION_FORMATION_WITH_SPECIFIED_SOURCE ( 'ANY', '', #26, .NOT_KNOWN. ) ;
#111 = CARTESIAN_POINT ( 'NONE',  ( 17.67766952966378100, 2.164890140588744600E-015, 12.50000000000000200 ) ) ;
#112 = EDGE_CURVE ( 'NONE', #180, #15, #291, .T. ) ;
#113 = CARTESIAN_POINT ( 'NONE',  ( -3.469446951953614200E-015, 17.67766952966358600, 12.50000000000000000 ) ) ;
#114 = VECTOR ( 'NONE', #285, 1000.000000000000000 ) ;
#115 = ORIENTED_EDGE ( 'NONE', *, *, #112, .T. ) ;
#116 = DIRECTION ( 'NONE',  ( 0.7071067811865513500, -0.7071067811865438000, -3.925231146709458300E-017 ) ) ;
#117 = DIRECTION ( 'NONE',  ( -1.000000000000000000, 0.0000000000000000000, 5.551115123125781500E-017 ) ) ;
#118 = ORIENTED_EDGE ( 'NONE', *, *, #79, .T. ) ;
#119 = CC_DESIGN_APPROVAL ( #212, ( #25 ) ) ;
#120 = ORIENTED_EDGE ( 'NONE', *, *, #24, .F. ) ;
#121 = CC_DESIGN_PERSON_AND_ORGANIZATION_ASSIGNMENT ( #273, #233, ( #26 ) ) ;
#122 = UNCERTAINTY_MEASURE_WITH_UNIT (LENGTH_MEASURE( 1.000000000000000100E-005 ), #131, 'distance_accuracy_value', 'NONE');
#123 = COORDINATED_UNIVERSAL_TIME_OFFSET ( 5, 0, .BEHIND. ) ;
#124 = VERTEX_POINT ( 'NONE', #237 ) ;
#125 = LOCAL_TIME ( 14, 11, 36.00000000000000000, #39 ) ;
#126 =( GEOMETRIC_REPRESENTATION_CONTEXT ( 3 ) GLOBAL_UNCERTAINTY_ASSIGNED_CONTEXT ( ( #122 ) ) GLOBAL_UNIT_ASSIGNED_CONTEXT ( ( #131, #278, #104 ) ) REPRESENTATION_CONTEXT ( 'NONE', 'WORKASPACE' ) );
#127 = LOCAL_TIME ( 14, 11, 36.00000000000000000, #18 ) ;
#128 = ORIENTED_EDGE ( 'NONE', *, *, #245, .T. ) ;
#129 = ORIENTED_EDGE ( 'NONE', *, *, #283, .F. ) ;
#130 = DIRECTION ( 'NONE',  ( 1.000000000000000000, 0.0000000000000000000, 0.0000000000000000000 ) ) ;
#131 =( LENGTH_UNIT ( ) NAMED_UNIT ( * ) SI_UNIT ( .MILLI., .METRE. ) );
#132 = EDGE_LOOP ( 'NONE', ( #203, #128, #226 ) ) ;
#133 = LINE ( 'NONE', #173, #253 ) ;
#134 = APPROVAL_PERSON_ORGANIZATION ( #43, #212, #272 ) ;
#135 = CARTESIAN_POINT ( 'NONE',  ( 4.187520012910446200E-016, -17.67766952966358900, -12.50000000000000400 ) ) ;
#136 = PERSON_AND_ORGANIZATION_ROLE ( 'creator' ) ;
#137 = DIRECTION ( 'NONE',  ( 1.000000000000000000, 6.123233995736767300E-017, 0.0000000000000000000 ) ) ;
#138 = CC_DESIGN_PERSON_AND_ORGANIZATION_ASSIGNMENT ( #56, #206, ( #25 ) ) ;
#139 = PLANE ( 'NONE',  #1 ) ;
#140 = DIRECTION ( 'NONE',  ( -0.7071067811865512400, -0.7071067811865439100, 3.925231146709457600E-017 ) ) ;
#141 = DIRECTION ( 'NONE',  ( 0.7071067811865512400, 0.7071067811865438000, -3.925231146709457600E-017 ) ) ;
#142 = DIRECTION ( 'NONE',  ( 0.7071067811865438000, 0.7071067811865513500, -3.925231146709417000E-017 ) ) ;
#143 = PRODUCT_DEFINITION ( 'UNKNOWN', '', #110, #44 ) ;
#144 = CARTESIAN_POINT ( 'NONE',  ( 4.163336342344337800E-015, -17.67766952966358600, 12.50000000000000400 ) ) ;
#145 = CALENDAR_DATE ( 2017, 1, 2 ) ;
#146 = CARTESIAN_POINT ( 'NONE',  ( -1.112641391681767300E-015, 17.67766952966358900, -12.50000000000000000 ) ) ;
#147 = VERTEX_POINT ( 'NONE', #10 ) ;
#148 = LINE ( 'NONE', #302, #159 ) ;
#149 = CALENDAR_DATE ( 2017, 1, 2 ) ;
#150 = APPROVAL_PERSON_ORGANIZATION ( #16, #152, #3 ) ;
#151 = VECTOR ( 'NONE', #13, 1000.000000000000000 ) ;
#152 = APPROVAL ( #102, 'UNSPECIFIED' ) ;
#153 = EDGE_LOOP ( 'NONE', ( #89, #129, #175, #183 ) ) ;
#154 = EDGE_CURVE ( 'NONE', #252, #232, #148, .T. ) ;
#155 = LINE ( 'NONE', #111, #47 ) ;
#156 = APPLICATION_CONTEXT ( 'configuration controlled 3d designs of mechanical parts and assemblies' ) ;
#157 = APPROVAL ( #211, 'UNSPECIFIED' ) ;
#158 = ORIENTED_EDGE ( 'NONE', *, *, #154, .T. ) ;
#159 = VECTOR ( 'NONE', #284, 1000.000000000000000 ) ;
#160 = APPROVAL_ROLE ( '' ) ;
#161 = DATE_TIME_ROLE ( 'creation_date' ) ;
#162 = APPROVAL_STATUS ( 'not_yet_approved' ) ;
#163 = CARTESIAN_POINT ( 'NONE',  ( 17.67766952966378100, 2.164890140588744600E-015, 12.50000000000000200 ) ) ;
#164 = DIRECTION ( 'NONE',  ( -6.123233995736767300E-017, 1.000000000000000000, 0.0000000000000000000 ) ) ;
#165 = DIRECTION ( 'NONE',  ( 5.551115123125781500E-017, 0.0000000000000000000, 1.000000000000000000 ) ) ;
#166 = AXIS2_PLACEMENT_3D ( 'NONE', #76, #210, #61 ) ;
#167 = DIRECTION ( 'NONE',  ( -0.7071067811865513500, 0.7071067811865438000, 3.925231146709458300E-017 ) ) ;
#168 = CARTESIAN_POINT ( 'NONE',  ( 4.187520012910446200E-016, -17.67766952966358900, -12.50000000000000400 ) ) ;
#169 = EDGE_CURVE ( 'NONE', #311, #180, #28, .T. ) ;
#170 = CARTESIAN_POINT ( 'NONE',  ( 1.806530782072490300E-015, -17.67766952966358900, 12.50000000000000400 ) ) ;
#171 = CARTESIAN_POINT ( 'NONE',  ( 17.67766952966378100, 2.164890140588744600E-015, -12.50000000000000500 ) ) ;
#172 = LINE ( 'NONE', #281, #114 ) ;
#173 = CARTESIAN_POINT ( 'NONE',  ( 17.67766952966377800, 0.0000000000000000000, -12.50000000000000000 ) ) ;
#174 = EDGE_LOOP ( 'NONE', ( #54, #288, #178, #40 ) ) ;
#175 = ORIENTED_EDGE ( 'NONE', *, *, #205, .F. ) ;
#176 = ADVANCED_FACE ( 'NONE', ( #282 ), #213, .F. ) ;
#177 = FACE_OUTER_BOUND ( 'NONE', #132, .T. ) ;
#178 = ORIENTED_EDGE ( 'NONE', *, *, #95, .F. ) ;
#179 = AXIS2_PLACEMENT_3D ( 'NONE', #37, #309, #190 ) ;
#180 = VERTEX_POINT ( 'NONE', #170 ) ;
#181 = AXIS2_PLACEMENT_3D ( 'NONE', #86, #142, #116 ) ;
#182 = EDGE_CURVE ( 'NONE', #124, #218, #265, .T. ) ;
#183 = ORIENTED_EDGE ( 'NONE', *, *, #294, .T. ) ;
#184 = CARTESIAN_POINT ( 'NONE',  ( 0.0000000000000000000, 0.0000000000000000000, 0.0000000000000000000 ) ) ;
#185 = ORIENTED_EDGE ( 'NONE', *, *, #182, .T. ) ;
#186 = CARTESIAN_POINT ( 'NONE',  ( -17.67766952966378100, 0.0000000000000000000, -12.50000000000000200 ) ) ;
#187 = DIRECTION ( 'NONE',  ( -1.000000000000000000, -6.123233995736766000E-017, 5.551115123125781500E-017 ) ) ;
#188 = CC_DESIGN_PERSON_AND_ORGANIZATION_ASSIGNMENT ( #22, #300, ( #110 ) ) ;
#189 = PLANE ( 'NONE',  #230 ) ;
#190 = DIRECTION ( 'NONE',  ( -1.000000000000000000, 0.0000000000000000000, 5.551115123125781500E-017 ) ) ;
#191 = LINE ( 'NONE', #75, #195 ) ;
#192 = ORIENTED_EDGE ( 'NONE', *, *, #223, .F. ) ;
#193 = PLANE ( 'NONE',  #72 ) ;
#194 = VECTOR ( 'NONE', #287, 1000.000000000000000 ) ;
#195 = VECTOR ( 'NONE', #78, 999.9999999999998900 ) ;
#196 = ORIENTED_EDGE ( 'NONE', *, *, #315, .T. ) ;
#197 = COORDINATED_UNIVERSAL_TIME_OFFSET ( 5, 0, .BEHIND. ) ;
#198 = ADVANCED_FACE ( 'NONE', ( #21 ), #189, .F. ) ;
#199 = CALENDAR_DATE ( 2017, 1, 2 ) ;
#200 = CC_DESIGN_APPROVAL ( #152, ( #110 ) ) ;
#201 = ORIENTED_EDGE ( 'NONE', *, *, #202, .F. ) ;
#202 = EDGE_CURVE ( 'NONE', #319, #48, #55, .T. ) ;
#203 = ORIENTED_EDGE ( 'NONE', *, *, #202, .T. ) ;
#204 = CALENDAR_DATE ( 2017, 1, 2 ) ;
#205 = EDGE_CURVE ( 'NONE', #235, #319, #17, .T. ) ;
#206 = PERSON_AND_ORGANIZATION_ROLE ( 'classification_officer' ) ;
#207 = CC_DESIGN_APPROVAL ( #157, ( #143 ) ) ;
#208 = MECHANICAL_CONTEXT ( 'NONE', #274, 'mechanical' ) ;
#209 = ORIENTED_EDGE ( 'NONE', *, *, #74, .F. ) ;
#210 = DIRECTION ( 'NONE',  ( -0.7071067811865439100, -0.7071067811865512400, -0.0000000000000000000 ) ) ;
#211 = APPROVAL_STATUS ( 'not_yet_approved' ) ;
#212 = APPROVAL ( #162, 'UNSPECIFIED' ) ;
#213 = PLANE ( 'NONE',  #59 ) ;
#214 = DIRECTION ( 'NONE',  ( 0.7071067811865512400, -0.7071067811865439100, 0.0000000000000000000 ) ) ;
#215 = DIRECTION ( 'NONE',  ( 6.123233995736766000E-017, -1.000000000000000000, -3.399077683617227000E-033 ) ) ;
#216 = DIRECTION ( 'NONE',  ( -0.0000000000000000000, -0.0000000000000000000, 1.000000000000000000 ) ) ;
#217 = CARTESIAN_POINT ( 'NONE',  ( -17.67766952966377800, -2.164890140588744600E-015, -12.50000000000000000 ) ) ;
#218 = VERTEX_POINT ( 'NONE', #171 ) ;
#219 = VECTOR ( 'NONE', #214, 999.9999999999998900 ) ;
#220 = ADVANCED_FACE ( 'NONE', ( #66 ), #193, .T. ) ;
#221 = FACE_OUTER_BOUND ( 'NONE', #240, .T. ) ;
#222 = VECTOR ( 'NONE', #167, 1000.000000000000000 ) ;
#223 = EDGE_CURVE ( 'NONE', #15, #70, #320, .T. ) ;
#224 = CC_DESIGN_SECURITY_CLASSIFICATION ( #25, ( #110 ) ) ;
#225 = CC_DESIGN_PERSON_AND_ORGANIZATION_ASSIGNMENT ( #50, #295, ( #143 ) ) ;
#226 = ORIENTED_EDGE ( 'NONE', *, *, #205, .T. ) ;
#227 = EDGE_LOOP ( 'NONE', ( #244, #246, #290 ) ) ;
#228 = DATE_AND_TIME ( #145, #269 ) ;
#229 = PERSON_AND_ORGANIZATION ( #297, #42 ) ;
#230 = AXIS2_PLACEMENT_3D ( 'NONE', #261, #83, #141 ) ;
#231 = AXIS2_PLACEMENT_3D ( 'NONE', #303, #215, #187 ) ;
#232 = VERTEX_POINT ( 'NONE', #239 ) ;
#233 = PERSON_AND_ORGANIZATION_ROLE ( 'design_owner' ) ;
#234 = DATE_TIME_ROLE ( 'classification_date' ) ;
#235 = VERTEX_POINT ( 'NONE', #310 ) ;
#236 = PLANE ( 'NONE',  #231 ) ;
#237 = CARTESIAN_POINT ( 'NONE',  ( -17.67766952966378100, 0.0000000000000000000, -12.50000000000000200 ) ) ;
#238 = CARTESIAN_POINT ( 'NONE',  ( -17.67766952966378100, 0.0000000000000000000, 12.50000000000000500 ) ) ;
#239 = CARTESIAN_POINT ( 'NONE',  ( -17.67766952966377800, -2.164890140588744600E-015, 12.50000000000000000 ) ) ;
#240 = EDGE_LOOP ( 'NONE', ( #270, #103, #96, #250 ) ) ;
#241 = EDGE_LOOP ( 'NONE', ( #115, #120, #301, #292 ) ) ;
#242 = PRODUCT_DEFINITION_SHAPE ( 'NONE', 'NONE',  #143 ) ;
#243 = AXIS2_PLACEMENT_3D ( 'NONE', #307, #38, #263 ) ;
#244 = ORIENTED_EDGE ( 'NONE', *, *, #315, .F. ) ;
#245 = EDGE_CURVE ( 'NONE', #48, #235, #133, .T. ) ;
#246 = ORIENTED_EDGE ( 'NONE', *, *, #100, .F. ) ;
#247 = VECTOR ( 'NONE', #216, 1000.000000000000000 ) ;
#248 = APPROVAL_DATE_TIME ( #91, #212 ) ;
#249 = CC_DESIGN_PERSON_AND_ORGANIZATION_ASSIGNMENT ( #321, #136, ( #110 ) ) ;
#250 = ORIENTED_EDGE ( 'NONE', *, *, #24, .T. ) ;
#251 = DIRECTION ( 'NONE',  ( 1.000000000000000000, 0.0000000000000000000, 0.0000000000000000000 ) ) ;
#252 = VERTEX_POINT ( 'NONE', #84 ) ;
#253 = VECTOR ( 'NONE', #64, 1000.000000000000000 ) ;
#254 = APPLICATION_PROTOCOL_DEFINITION ( 'international standard', 'config_control_design', 1994, #274 ) ;
#255 = APPROVAL_DATE_TIME ( #293, #152 ) ;
#256 = CARTESIAN_POINT ( 'NONE',  ( -17.67766952966377800, -2.164890140588744600E-015, 12.50000000000000000 ) ) ;
#257 = CARTESIAN_POINT ( 'NONE',  ( -17.67766952966378100, 0.0000000000000000000, -12.50000000000000200 ) ) ;
#258 = CARTESIAN_POINT ( 'NONE',  ( 17.67766952966377800, 0.0000000000000000000, -12.50000000000000000 ) ) ;
#259 = LINE ( 'NONE', #57, #97 ) ;
#260 = AXIS2_PLACEMENT_3D ( 'NONE', #184, #298, #251 ) ;
#261 = CARTESIAN_POINT ( 'NONE',  ( 17.67766952966378100, 2.164890140588744600E-015, -12.50000000000000500 ) ) ;
#262 = DIRECTION ( 'NONE',  ( 1.000000000000000000, 6.123233995736766000E-017, -5.551115123125781500E-017 ) ) ;
#263 = DIRECTION ( 'NONE',  ( -0.7071067811865512400, -0.7071067811865439100, -0.0000000000000000000 ) ) ;
#264 = ORIENTED_EDGE ( 'NONE', *, *, #294, .F. ) ;
#265 = LINE ( 'NONE', #186, #94 ) ;
#266 = ADVANCED_FACE ( 'NONE', ( #276 ), #62, .F. ) ;
#267 = CALENDAR_DATE ( 2017, 1, 2 ) ;
#268 = ADVANCED_FACE ( 'NONE', ( #107 ), #286, .F. ) ;
#269 = LOCAL_TIME ( 14, 11, 36.00000000000000000, #123 ) ;
#270 = ORIENTED_EDGE ( 'NONE', *, *, #223, .T. ) ;
#271 = VECTOR ( 'NONE', #262, 1000.000000000000000 ) ;
#272 = APPROVAL_ROLE ( '' ) ;
#273 = PERSON_AND_ORGANIZATION ( #297, #42 ) ;
#274 = APPLICATION_CONTEXT ( 'configuration controlled 3d designs of mechanical parts and assemblies' ) ;
#275 = ORIENTED_EDGE ( 'NONE', *, *, #112, .F. ) ;
#276 = FACE_OUTER_BOUND ( 'NONE', #153, .T. ) ;
#277 = SHAPE_DEFINITION_REPRESENTATION ( #242, #304 ) ;
#278 =( NAMED_UNIT ( * ) PLANE_ANGLE_UNIT ( ) SI_UNIT ( $, .RADIAN. ) );
#279 = CARTESIAN_POINT ( 'NONE',  ( -1.112641391681767300E-015, 17.67766952966358900, -12.50000000000000000 ) ) ;
#280 = VECTOR ( 'NONE', #8, 1000.000000000000000 ) ;
#281 = CARTESIAN_POINT ( 'NONE',  ( 17.67766952966377800, 0.0000000000000000000, -12.50000000000000000 ) ) ;
#282 = FACE_OUTER_BOUND ( 'NONE', #63, .T. ) ;
#283 = EDGE_CURVE ( 'NONE', #319, #147, #316, .T. ) ;
#284 = DIRECTION ( 'NONE',  ( -1.000000000000000000, -6.123233995736767300E-017, -0.0000000000000000000 ) ) ;
#285 = DIRECTION ( 'NONE',  ( -0.0000000000000000000, -0.0000000000000000000, 1.000000000000000000 ) ) ;
#286 = PLANE ( 'NONE',  #181 ) ;
#287 = DIRECTION ( 'NONE',  ( -0.0000000000000000000, -0.0000000000000000000, 1.000000000000000000 ) ) ;
#288 = ORIENTED_EDGE ( 'NONE', *, *, #169, .F. ) ;
#289 = ADVANCED_FACE ( 'NONE', ( #27 ), #11, .F. ) ;
#290 = ORIENTED_EDGE ( 'NONE', *, *, #154, .F. ) ;
#291 = LINE ( 'NONE', #81, #222 ) ;
#292 = ORIENTED_EDGE ( 'NONE', *, *, #169, .T. ) ;
#293 = DATE_AND_TIME ( #149, #125 ) ;
#294 = EDGE_CURVE ( 'NONE', #235, #232, #73, .T. ) ;
#295 = PERSON_AND_ORGANIZATION_ROLE ( 'creator' ) ;
#296 = APPLICATION_PROTOCOL_DEFINITION ( 'international standard', 'config_control_design', 1994, #156 ) ;
#297 = PERSON ( 'UNSPECIFIED', 'UNSPECIFIED', 'UNSPECIFIED', ('UNSPECIFIED'), ('UNSPECIFIED'), ('UNSPECIFIED') ) ;
#298 = DIRECTION ( 'NONE',  ( 0.0000000000000000000, 0.0000000000000000000, 1.000000000000000000 ) ) ;
#299 = DIRECTION ( 'NONE',  ( -0.7071067811865513500, 0.7071067811865438000, 3.925231146709458300E-017 ) ) ;
#300 = PERSON_AND_ORGANIZATION_ROLE ( 'design_supplier' ) ;
#301 = ORIENTED_EDGE ( 'NONE', *, *, #79, .F. ) ;
#302 = CARTESIAN_POINT ( 'NONE',  ( 17.67766952966377800, 0.0000000000000000000, 12.50000000000000000 ) ) ;
#303 = CARTESIAN_POINT ( 'NONE',  ( -17.67766952966378100, 0.0000000000000000000, -12.50000000000000200 ) ) ;
#304 = ADVANCED_BREP_SHAPE_REPRESENTATION ( 'Web Model 47009', ( #5, #98, #260 ), #126 ) ;
#305 = CARTESIAN_POINT ( 'NONE',  ( -1.112641391681767300E-015, 17.67766952966358900, -12.50000000000000000 ) ) ;
#306 = VECTOR ( 'NONE', #165, 1000.000000000000000 ) ;
#307 = CARTESIAN_POINT ( 'NONE',  ( -17.67766952966377800, -2.164890140588744600E-015, -12.50000000000000000 ) ) ;
#308 = ORIENTED_EDGE ( 'NONE', *, *, #283, .T. ) ;
#309 = DIRECTION ( 'NONE',  ( 5.551115123125781500E-017, 0.0000000000000000000, 1.000000000000000000 ) ) ;
#310 = CARTESIAN_POINT ( 'NONE',  ( -17.67766952966377800, -2.164890140588744600E-015, -12.50000000000000000 ) ) ;
#311 = VERTEX_POINT ( 'NONE', #168 ) ;
#312 = ADVANCED_FACE ( 'NONE', ( #19 ), #88, .F. ) ;
#313 = DATE_AND_TIME ( #204, #101 ) ;
#314 = ADVANCED_FACE ( 'NONE', ( #177 ), #108, .F. ) ;
#315 = EDGE_CURVE ( 'NONE', #147, #252, #191, .T. ) ;
#316 = LINE ( 'NONE', #146, #194 ) ;
#317 = EDGE_LOOP ( 'NONE', ( #118, #185, #2 ) ) ;
#318 = APPROVAL_PERSON_ORGANIZATION ( #229, #157, #160 ) ;
#319 = VERTEX_POINT ( 'NONE', #279 ) ;
#320 = LINE ( 'NONE', #238, #271 ) ;
#321 = PERSON_AND_ORGANIZATION ( #297, #42 ) ;
ENDSEC;
END-ISO-10303-21;
