ISO-10303-21;
HEADER;
FILE_DESCRIPTION (( 'STEP AP203' ),
    '1' );
FILE_NAME ('Web Model 43927_43929.step',
    '2017-04-24T19:43:44',
    ( '' ),
    ( '' ),
    'SwSTEP 2.0',
    'SolidWorks 2016',
    '' );
FILE_SCHEMA (( 'CONFIG_CONTROL_DESIGN' ));
ENDSEC;

DATA;
#1 = DIRECTION ( 'NONE',  ( 0.0000000000000000000, -0.0000000000000000000, 1.000000000000000000 ) ) ;
#2 = CC_DESIGN_PERSON_AND_ORGANIZATION_ASSIGNMENT ( #6, #211, ( #204 ) ) ;
#3 = PLANE ( 'NONE',  #181 ) ;
#4 = LOCAL_TIME ( 15, 43, 44.00000000000000000, #5 ) ;
#5 = COORDINATED_UNIVERSAL_TIME_OFFSET ( 5, 0, .BEHIND. ) ;
#6 = PERSON_AND_ORGANIZATION ( #140, #30 ) ;
#7 = APPROVAL_DATE_TIME ( #8, #196 ) ;
#8 = DATE_AND_TIME ( #12, #17 ) ;
#9 = EDGE_CURVE ( 'NONE', #137, #164, #89, .T. ) ;
#10 =( NAMED_UNIT ( * ) SI_UNIT ( $, .STERADIAN. ) SOLID_ANGLE_UNIT ( ) );
#11 = ADVANCED_FACE ( 'NONE', ( #131 ), #138, .F. ) ;
#12 = CALENDAR_DATE ( 2017, 24, 4 ) ;
#13 = CARTESIAN_POINT ( 'NONE',  ( 127.0000000000000000, -101.5999999999999700, 0.7500000000000000000 ) ) ;
#14 = CARTESIAN_POINT ( 'NONE',  ( 127.0000000000000000, 101.5999999999999900, -0.7500000000000000000 ) ) ;
#15 = CC_DESIGN_DATE_AND_TIME_ASSIGNMENT ( #169, #205, ( #204 ) ) ;
#16 = DIRECTION ( 'NONE',  ( -1.000000000000000000, -5.463695987328526400E-017, 0.0000000000000000000 ) ) ;
#17 = LOCAL_TIME ( 15, 43, 44.00000000000000000, #18 ) ;
#18 = COORDINATED_UNIVERSAL_TIME_OFFSET ( 5, 0, .BEHIND. ) ;
#19 = APPROVAL_PERSON_ORGANIZATION ( #21, #196, #188 ) ;
#20 = DIRECTION ( 'NONE',  ( 1.000000000000000000, 2.185478394931410600E-016, -0.0000000000000000000 ) ) ;
#21 = PERSON_AND_ORGANIZATION ( #140, #30 ) ;
#22 = AXIS2_PLACEMENT_3D ( 'NONE', #145, #233, #122 ) ;
#23 = DIRECTION ( 'NONE',  ( -1.000000000000000000, -5.463695987328526400E-017, 0.0000000000000000000 ) ) ;
#24 =( GEOMETRIC_REPRESENTATION_CONTEXT ( 3 ) GLOBAL_UNCERTAINTY_ASSIGNED_CONTEXT ( ( #51 ) ) GLOBAL_UNIT_ASSIGNED_CONTEXT ( ( #76, #231, #10 ) ) REPRESENTATION_CONTEXT ( 'NONE', 'WORKASPACE' ) );
#25 = CARTESIAN_POINT ( 'NONE',  ( -127.0000000000000000, -101.6000000000000200, 0.7500000000000000000 ) ) ;
#26 = PERSON_AND_ORGANIZATION ( #140, #30 ) ;
#27 = EDGE_CURVE ( 'NONE', #107, #156, #149, .T. ) ;
#28 = EDGE_CURVE ( 'NONE', #156, #137, #237, .T. ) ;
#29 = PERSON_AND_ORGANIZATION ( #140, #30 ) ;
#30 = ORGANIZATION ( 'UNSPECIFIED', 'UNSPECIFIED', '' ) ;
#31 = ADVANCED_FACE ( 'NONE', ( #221 ), #60, .F. ) ;
#32 = SHAPE_DEFINITION_REPRESENTATION ( #34, #173 ) ;
#33 = COORDINATED_UNIVERSAL_TIME_OFFSET ( 5, 0, .BEHIND. ) ;
#34 = PRODUCT_DEFINITION_SHAPE ( 'NONE', 'NONE',  #204 ) ;
#35 = CARTESIAN_POINT ( 'NONE',  ( -127.0000000000000000, 101.5999999999999800, 0.7500000000000000000 ) ) ;
#36 = CARTESIAN_POINT ( 'NONE',  ( 0.0000000000000000000, 0.0000000000000000000, -0.7500000000000000000 ) ) ;
#37 = CARTESIAN_POINT ( 'NONE',  ( -127.0000000000000000, -101.6000000000000200, 0.7500000000000000000 ) ) ;
#38 = CALENDAR_DATE ( 2017, 24, 4 ) ;
#39 = DIRECTION ( 'NONE',  ( 0.0000000000000000000, 0.0000000000000000000, 1.000000000000000000 ) ) ;
#40 = CARTESIAN_POINT ( 'NONE',  ( -127.0000000000000000, -101.6000000000000200, -0.7500000000000000000 ) ) ;
#41 = PERSON_AND_ORGANIZATION ( #140, #30 ) ;
#42 = AXIS2_PLACEMENT_3D ( 'NONE', #121, #143, #112 ) ;
#43 = VECTOR ( 'NONE', #103, 1000.000000000000000 ) ;
#44 = VECTOR ( 'NONE', #81, 1000.000000000000000 ) ;
#45 = APPROVAL_DATE_TIME ( #209, #57 ) ;
#46 = EDGE_CURVE ( 'NONE', #107, #151, #223, .T. ) ;
#47 = SECURITY_CLASSIFICATION_LEVEL ( 'unclassified' ) ;
#48 = ADVANCED_FACE ( 'NONE', ( #106 ), #3, .F. ) ;
#49 = LINE ( 'NONE', #13, #43 ) ;
#50 = VECTOR ( 'NONE', #16, 1000.000000000000000 ) ;
#51 = UNCERTAINTY_MEASURE_WITH_UNIT (LENGTH_MEASURE( 1.000000000000000100E-005 ), #76, 'distance_accuracy_value', 'NONE');
#52 = VECTOR ( 'NONE', #58, 1000.000000000000000 ) ;
#53 = DIRECTION ( 'NONE',  ( 0.0000000000000000000, 1.000000000000000000, 0.0000000000000000000 ) ) ;
#54 = CARTESIAN_POINT ( 'NONE',  ( 0.0000000000000000000, 0.0000000000000000000, 0.0000000000000000000 ) ) ;
#55 = DIRECTION ( 'NONE',  ( 1.000000000000000000, 0.0000000000000000000, 0.0000000000000000000 ) ) ;
#56 = LINE ( 'NONE', #25, #44 ) ;
#57 = APPROVAL ( #152, 'UNSPECIFIED' ) ;
#58 = DIRECTION ( 'NONE',  ( -0.0000000000000000000, -0.0000000000000000000, -1.000000000000000000 ) ) ;
#59 = CARTESIAN_POINT ( 'NONE',  ( -127.0000000000000000, -101.6000000000000200, -0.7500000000000000000 ) ) ;
#60 = PLANE ( 'NONE',  #22 ) ;
#61 = ADVANCED_FACE ( 'NONE', ( #227 ), #213, .T. ) ;
#62 = LINE ( 'NONE', #210, #52 ) ;
#63 = FACE_OUTER_BOUND ( 'NONE', #99, .T. ) ;
#64 = VECTOR ( 'NONE', #53, 1000.000000000000000 ) ;
#65 = CC_DESIGN_PERSON_AND_ORGANIZATION_ASSIGNMENT ( #26, #212, ( #85 ) ) ;
#66 = PRODUCT_DEFINITION_FORMATION_WITH_SPECIFIED_SOURCE ( 'ANY', '', #85, .NOT_KNOWN. ) ;
#67 = VECTOR ( 'NONE', #20, 1000.000000000000000 ) ;
#68 = VECTOR ( 'NONE', #230, 1000.000000000000000 ) ;
#69 = EDGE_LOOP ( 'NONE', ( #161, #183, #176, #98 ) ) ;
#70 = VECTOR ( 'NONE', #23, 1000.000000000000000 ) ;
#71 = PERSON_AND_ORGANIZATION_ROLE ( 'creator' ) ;
#72 = APPLICATION_PROTOCOL_DEFINITION ( 'international standard', 'config_control_design', 1994, #194 ) ;
#73 = CARTESIAN_POINT ( 'NONE',  ( 127.0000000000000000, 101.5999999999999900, 0.7500000000000000000 ) ) ;
#74 = ORIENTED_EDGE ( 'NONE', *, *, #129, .T. ) ;
#75 = LINE ( 'NONE', #14, #70 ) ;
#76 =( LENGTH_UNIT ( ) NAMED_UNIT ( * ) SI_UNIT ( .MILLI., .METRE. ) );
#77 = EDGE_CURVE ( 'NONE', #168, #164, #232, .T. ) ;
#78 = APPROVAL_DATE_TIME ( #114, #148 ) ;
#79 = ORIENTED_EDGE ( 'NONE', *, *, #129, .F. ) ;
#80 = DIRECTION ( 'NONE',  ( 1.000000000000000000, 0.0000000000000000000, -0.0000000000000000000 ) ) ;
#81 = DIRECTION ( 'NONE',  ( -0.0000000000000000000, -0.0000000000000000000, -1.000000000000000000 ) ) ;
#82 = CC_DESIGN_PERSON_AND_ORGANIZATION_ASSIGNMENT ( #29, #71, ( #66 ) ) ;
#83 = CALENDAR_DATE ( 2017, 24, 4 ) ;
#84 = APPROVAL_PERSON_ORGANIZATION ( #120, #148, #170 ) ;
#85 = PRODUCT ( 'Web Model 43927_43929', 'Web Model 43927_43929', '', ( #208 ) ) ;
#86 = COORDINATED_UNIVERSAL_TIME_OFFSET ( 5, 0, .BEHIND. ) ;
#87 = CC_DESIGN_APPROVAL ( #57, ( #200 ) ) ;
#88 = CALENDAR_DATE ( 2017, 24, 4 ) ;
#89 = LINE ( 'NONE', #126, #67 ) ;
#90 = ORIENTED_EDGE ( 'NONE', *, *, #27, .T. ) ;
#91 = DATE_TIME_ROLE ( 'classification_date' ) ;
#92 = EDGE_CURVE ( 'NONE', #182, #107, #174, .T. ) ;
#93 = ORIENTED_EDGE ( 'NONE', *, *, #115, .F. ) ;
#94 = PLANE ( 'NONE',  #229 ) ;
#95 = AXIS2_PLACEMENT_3D ( 'NONE', #54, #39, #224 ) ;
#96 = CARTESIAN_POINT ( 'NONE',  ( 127.0000000000000000, -101.5999999999999700, -0.7500000000000000000 ) ) ;
#97 = ORIENTED_EDGE ( 'NONE', *, *, #167, .T. ) ;
#98 = ORIENTED_EDGE ( 'NONE', *, *, #150, .T. ) ;
#99 = EDGE_LOOP ( 'NONE', ( #74, #113, #180, #127 ) ) ;
#100 = ORIENTED_EDGE ( 'NONE', *, *, #115, .T. ) ;
#101 = DIRECTION ( 'NONE',  ( 1.000000000000000000, 5.463695987328525800E-017, 0.0000000000000000000 ) ) ;
#102 = ORIENTED_EDGE ( 'NONE', *, *, #46, .T. ) ;
#103 = DIRECTION ( 'NONE',  ( 0.0000000000000000000, 1.000000000000000000, 0.0000000000000000000 ) ) ;
#104 = CARTESIAN_POINT ( 'NONE',  ( 127.0000000000000000, 101.5999999999999900, 0.7500000000000000000 ) ) ;
#105 = APPROVAL_STATUS ( 'not_yet_approved' ) ;
#106 = FACE_OUTER_BOUND ( 'NONE', #69, .T. ) ;
#107 = VERTEX_POINT ( 'NONE', #35 ) ;
#108 = DIRECTION ( 'NONE',  ( -0.0000000000000000000, -1.000000000000000000, -0.0000000000000000000 ) ) ;
#109 = CC_DESIGN_DATE_AND_TIME_ASSIGNMENT ( #219, #91, ( #200 ) ) ;
#110 = DIRECTION ( 'NONE',  ( -0.0000000000000000000, -0.0000000000000000000, -1.000000000000000000 ) ) ;
#111 = CARTESIAN_POINT ( 'NONE',  ( 127.0000000000000000, 101.5999999999999900, -0.7500000000000000000 ) ) ;
#112 = DIRECTION ( 'NONE',  ( 0.0000000000000000000, 0.0000000000000000000, 1.000000000000000000 ) ) ;
#113 = ORIENTED_EDGE ( 'NONE', *, *, #150, .F. ) ;
#114 = DATE_AND_TIME ( #166, #214 ) ;
#115 = EDGE_CURVE ( 'NONE', #151, #168, #235, .T. ) ;
#116 = EDGE_CURVE ( 'NONE', #186, #156, #75, .T. ) ;
#117 = DESIGN_CONTEXT ( 'detailed design', #194, 'design' ) ;
#118 = CC_DESIGN_PERSON_AND_ORGANIZATION_ASSIGNMENT ( #206, #225, ( #66 ) ) ;
#119 = PERSON_AND_ORGANIZATION_ROLE ( 'classification_officer' ) ;
#120 = PERSON_AND_ORGANIZATION ( #140, #30 ) ;
#121 = CARTESIAN_POINT ( 'NONE',  ( 127.0000000000000000, -101.5999999999999700, 0.7500000000000000000 ) ) ;
#122 = DIRECTION ( 'NONE',  ( -1.000000000000000000, -2.185478394931410300E-016, 0.0000000000000000000 ) ) ;
#123 = APPROVAL_PERSON_ORGANIZATION ( #172, #57, #189 ) ;
#124 = ADVANCED_FACE ( 'NONE', ( #192 ), #94, .F. ) ;
#125 = CARTESIAN_POINT ( 'NONE',  ( 127.0000000000000000, 101.5999999999999900, 0.7500000000000000000 ) ) ;
#126 = CARTESIAN_POINT ( 'NONE',  ( 127.0000000000000000, -101.5999999999999700, -0.7500000000000000000 ) ) ;
#127 = ORIENTED_EDGE ( 'NONE', *, *, #77, .T. ) ;
#128 = ORIENTED_EDGE ( 'NONE', *, *, #116, .F. ) ;
#129 = EDGE_CURVE ( 'NONE', #164, #186, #222, .T. ) ;
#130 = AXIS2_PLACEMENT_3D ( 'NONE', #236, #193, #163 ) ;
#131 = FACE_OUTER_BOUND ( 'NONE', #191, .T. ) ;
#132 = APPLICATION_CONTEXT ( 'configuration controlled 3d designs of mechanical parts and assemblies' ) ;
#133 = CARTESIAN_POINT ( 'NONE',  ( 127.0000000000000000, -101.5999999999999700, 0.7500000000000000000 ) ) ;
#134 = PRODUCT_RELATED_PRODUCT_CATEGORY ( 'detail', '', ( #85 ) ) ;
#135 = APPLICATION_PROTOCOL_DEFINITION ( 'international standard', 'config_control_design', 1994, #132 ) ;
#136 = VECTOR ( 'NONE', #110, 1000.000000000000000 ) ;
#137 = VERTEX_POINT ( 'NONE', #59 ) ;
#138 = PLANE ( 'NONE',  #190 ) ;
#139 = VECTOR ( 'NONE', #108, 1000.000000000000000 ) ;
#140 = PERSON ( 'UNSPECIFIED', 'UNSPECIFIED', 'UNSPECIFIED', ('UNSPECIFIED'), ('UNSPECIFIED'), ('UNSPECIFIED') ) ;
#141 = ORIENTED_EDGE ( 'NONE', *, *, #28, .T. ) ;
#142 = CARTESIAN_POINT ( 'NONE',  ( -127.0000000000000000, -101.6000000000000200, 0.7500000000000000000 ) ) ;
#143 = DIRECTION ( 'NONE',  ( -1.000000000000000000, 0.0000000000000000000, 0.0000000000000000000 ) ) ;
#144 = DIRECTION ( 'NONE',  ( 5.463695987328525800E-017, -1.000000000000000000, 0.0000000000000000000 ) ) ;
#145 = CARTESIAN_POINT ( 'NONE',  ( 127.0000000000000000, -101.5999999999999700, 0.7500000000000000000 ) ) ;
#146 = EDGE_LOOP ( 'NONE', ( #102, #100, #97, #207 ) ) ;
#147 = EDGE_LOOP ( 'NONE', ( #141, #202, #160, #90 ) ) ;
#148 = APPROVAL ( #171, 'UNSPECIFIED' ) ;
#149 = LINE ( 'NONE', #215, #136 ) ;
#150 = EDGE_CURVE ( 'NONE', #182, #186, #62, .T. ) ;
#151 = VERTEX_POINT ( 'NONE', #195 ) ;
#152 = APPROVAL_STATUS ( 'not_yet_approved' ) ;
#153 = DIRECTION ( 'NONE',  ( -0.0000000000000000000, -0.0000000000000000000, -1.000000000000000000 ) ) ;
#154 = ORIENTED_EDGE ( 'NONE', *, *, #77, .F. ) ;
#155 = MANIFOLD_SOLID_BREP ( 'Boss-Extrude1', #201 ) ;
#156 = VERTEX_POINT ( 'NONE', #179 ) ;
#157 = CC_DESIGN_APPROVAL ( #196, ( #204 ) ) ;
#158 = VECTOR ( 'NONE', #153, 1000.000000000000000 ) ;
#159 = EDGE_CURVE ( 'NONE', #151, #137, #56, .T. ) ;
#160 = ORIENTED_EDGE ( 'NONE', *, *, #46, .F. ) ;
#161 = ORIENTED_EDGE ( 'NONE', *, *, #116, .T. ) ;
#162 = DIRECTION ( 'NONE',  ( 0.0000000000000000000, 0.0000000000000000000, -1.000000000000000000 ) ) ;
#163 = DIRECTION ( 'NONE',  ( 1.000000000000000000, 0.0000000000000000000, -0.0000000000000000000 ) ) ;
#164 = VERTEX_POINT ( 'NONE', #96 ) ;
#165 = LOCAL_TIME ( 15, 43, 44.00000000000000000, #86 ) ;
#166 = CALENDAR_DATE ( 2017, 24, 4 ) ;
#167 = EDGE_CURVE ( 'NONE', #168, #182, #49, .T. ) ;
#168 = VERTEX_POINT ( 'NONE', #217 ) ;
#169 = DATE_AND_TIME ( #88, #4 ) ;
#170 = APPROVAL_ROLE ( '' ) ;
#171 = APPROVAL_STATUS ( 'not_yet_approved' ) ;
#172 = PERSON_AND_ORGANIZATION ( #140, #30 ) ;
#173 = ADVANCED_BREP_SHAPE_REPRESENTATION ( 'Web Model 43927_43929', ( #155, #95 ), #24 ) ;
#174 = LINE ( 'NONE', #73, #50 ) ;
#175 = CC_DESIGN_PERSON_AND_ORGANIZATION_ASSIGNMENT ( #41, #119, ( #200 ) ) ;
#176 = ORIENTED_EDGE ( 'NONE', *, *, #92, .F. ) ;
#177 = LOCAL_TIME ( 15, 43, 44.00000000000000000, #226 ) ;
#178 = CARTESIAN_POINT ( 'NONE',  ( 127.0000000000000000, -101.5999999999999700, 0.7500000000000000000 ) ) ;
#179 = CARTESIAN_POINT ( 'NONE',  ( -127.0000000000000000, 101.5999999999999800, -0.7500000000000000000 ) ) ;
#180 = ORIENTED_EDGE ( 'NONE', *, *, #167, .F. ) ;
#181 = AXIS2_PLACEMENT_3D ( 'NONE', #104, #144, #101 ) ;
#182 = VERTEX_POINT ( 'NONE', #125 ) ;
#183 = ORIENTED_EDGE ( 'NONE', *, *, #27, .F. ) ;
#184 = ADVANCED_FACE ( 'NONE', ( #63 ), #199, .F. ) ;
#185 = ORIENTED_EDGE ( 'NONE', *, *, #159, .T. ) ;
#186 = VERTEX_POINT ( 'NONE', #111 ) ;
#187 = EDGE_LOOP ( 'NONE', ( #203, #154, #93, #185 ) ) ;
#188 = APPROVAL_ROLE ( '' ) ;
#189 = APPROVAL_ROLE ( '' ) ;
#190 = AXIS2_PLACEMENT_3D ( 'NONE', #36, #1, #80 ) ;
#191 = EDGE_LOOP ( 'NONE', ( #197, #128, #79, #216 ) ) ;
#192 = FACE_OUTER_BOUND ( 'NONE', #147, .T. ) ;
#193 = DIRECTION ( 'NONE',  ( 0.0000000000000000000, -0.0000000000000000000, 1.000000000000000000 ) ) ;
#194 = APPLICATION_CONTEXT ( 'configuration controlled 3d designs of mechanical parts and assemblies' ) ;
#195 = CARTESIAN_POINT ( 'NONE',  ( -127.0000000000000000, -101.6000000000000200, 0.7500000000000000000 ) ) ;
#196 = APPROVAL ( #105, 'UNSPECIFIED' ) ;
#197 = ORIENTED_EDGE ( 'NONE', *, *, #28, .F. ) ;
#198 = CARTESIAN_POINT ( 'NONE',  ( 127.0000000000000000, -101.5999999999999700, -0.7500000000000000000 ) ) ;
#199 = PLANE ( 'NONE',  #42 ) ;
#200 = SECURITY_CLASSIFICATION ( '', '', #47 ) ;
#201 = CLOSED_SHELL ( 'NONE', ( #124, #31, #184, #48, #61, #11 ) ) ;
#202 = ORIENTED_EDGE ( 'NONE', *, *, #159, .F. ) ;
#203 = ORIENTED_EDGE ( 'NONE', *, *, #9, .T. ) ;
#204 = PRODUCT_DEFINITION ( 'UNKNOWN', '', #66, #117 ) ;
#205 = DATE_TIME_ROLE ( 'creation_date' ) ;
#206 = PERSON_AND_ORGANIZATION ( #140, #30 ) ;
#207 = ORIENTED_EDGE ( 'NONE', *, *, #92, .T. ) ;
#208 = MECHANICAL_CONTEXT ( 'NONE', #132, 'mechanical' ) ;
#209 = DATE_AND_TIME ( #83, #165 ) ;
#210 = CARTESIAN_POINT ( 'NONE',  ( 127.0000000000000000, 101.5999999999999900, 0.7500000000000000000 ) ) ;
#211 = PERSON_AND_ORGANIZATION_ROLE ( 'creator' ) ;
#212 = PERSON_AND_ORGANIZATION_ROLE ( 'design_owner' ) ;
#213 = PLANE ( 'NONE',  #130 ) ;
#214 = LOCAL_TIME ( 15, 43, 44.00000000000000000, #33 ) ;
#215 = CARTESIAN_POINT ( 'NONE',  ( -127.0000000000000000, 101.5999999999999800, 0.7500000000000000000 ) ) ;
#216 = ORIENTED_EDGE ( 'NONE', *, *, #9, .F. ) ;
#217 = CARTESIAN_POINT ( 'NONE',  ( 127.0000000000000000, -101.5999999999999700, 0.7500000000000000000 ) ) ;
#218 = VECTOR ( 'NONE', #234, 1000.000000000000000 ) ;
#219 = DATE_AND_TIME ( #38, #177 ) ;
#220 = CC_DESIGN_APPROVAL ( #148, ( #66 ) ) ;
#221 = FACE_OUTER_BOUND ( 'NONE', #187, .T. ) ;
#222 = LINE ( 'NONE', #198, #64 ) ;
#223 = LINE ( 'NONE', #37, #218 ) ;
#224 = DIRECTION ( 'NONE',  ( 1.000000000000000000, 0.0000000000000000000, 0.0000000000000000000 ) ) ;
#225 = PERSON_AND_ORGANIZATION_ROLE ( 'design_supplier' ) ;
#226 = COORDINATED_UNIVERSAL_TIME_OFFSET ( 5, 0, .BEHIND. ) ;
#227 = FACE_OUTER_BOUND ( 'NONE', #146, .T. ) ;
#228 = CC_DESIGN_SECURITY_CLASSIFICATION ( #200, ( #66 ) ) ;
#229 = AXIS2_PLACEMENT_3D ( 'NONE', #142, #55, #162 ) ;
#230 = DIRECTION ( 'NONE',  ( 1.000000000000000000, 2.185478394931410600E-016, -0.0000000000000000000 ) ) ;
#231 =( NAMED_UNIT ( * ) PLANE_ANGLE_UNIT ( ) SI_UNIT ( $, .RADIAN. ) );
#232 = LINE ( 'NONE', #178, #158 ) ;
#233 = DIRECTION ( 'NONE',  ( -2.185478394931410300E-016, 1.000000000000000000, 0.0000000000000000000 ) ) ;
#234 = DIRECTION ( 'NONE',  ( -0.0000000000000000000, -1.000000000000000000, -0.0000000000000000000 ) ) ;
#235 = LINE ( 'NONE', #133, #68 ) ;
#236 = CARTESIAN_POINT ( 'NONE',  ( 0.0000000000000000000, 0.0000000000000000000, 0.7500000000000000000 ) ) ;
#237 = LINE ( 'NONE', #40, #139 ) ;
ENDSEC;
END-ISO-10303-21;
