ISO-10303-21;
HEADER;
FILE_DESCRIPTION (( 'STEP AP203' ),
    '1' );
FILE_NAME ('Web Model 20464_20504.step',
    '2022-06-06T20:40:14',
    ( 'WC' ),
    ( 'Windows Central' ),
    'SwSTEP 2.0',
    'SolidWorks 2021',
    '' );
FILE_SCHEMA (( 'CONFIG_CONTROL_DESIGN' ));
ENDSEC;

DATA;
#1 = LOCAL_TIME ( 16, 40, 14.00000000000000000, #31 ) ;
#2 = EDGE_LOOP ( 'NONE', ( #79, #163, #49, #86 ) ) ;
#3 = CIRCLE ( 'NONE', #141, 10.00000000000000000 ) ;
#4 = LINE ( 'NONE', #108, #132 ) ;
#5 = EDGE_CURVE ( 'NONE', #13, #117, #89, .T. ) ;
#6 = CC_DESIGN_APPROVAL ( #114, ( #57 ) ) ;
#7 = DATE_AND_TIME ( #83, #159 ) ;
#8 = CIRCLE ( 'NONE', #15, 10.00000000000000000 ) ;
#9 = PERSON_AND_ORGANIZATION ( #168, #40 ) ;
#10 = DATE_AND_TIME ( #102, #44 ) ;
#11 = CARTESIAN_POINT ( 'NONE',  ( 0.000000000000000000, 0.000000000000000000, 1.000000000000000000 ) ) ;
#12 = ORIENTED_EDGE ( 'NONE', *, *, #164, .F. ) ;
#13 = VERTEX_POINT ( 'NONE', #21 ) ;
#14 =( NAMED_UNIT ( * ) SI_UNIT ( $, .STERADIAN. ) SOLID_ANGLE_UNIT ( ) );
#15 = AXIS2_PLACEMENT_3D ( 'NONE', #74, #140, #165 ) ;
#16 = EDGE_CURVE ( 'NONE', #61, #22, #8, .T. ) ;
#17 = APPLICATION_PROTOCOL_DEFINITION ( 'international standard', 'config_control_design', 1994, #153 ) ;
#18 = COORDINATED_UNIVERSAL_TIME_OFFSET ( 5, 0, .BEHIND. ) ;
#19 = LOCAL_TIME ( 16, 40, 14.00000000000000000, #111 ) ;
#20 = PERSON_AND_ORGANIZATION_ROLE ( 'design_supplier' ) ;
#21 = CARTESIAN_POINT ( 'NONE',  ( 10.00000000000000000, 1.224646799147353256E-15, 1.000000000000000000 ) ) ;
#22 = VERTEX_POINT ( 'NONE', #122 ) ;
#23 = CARTESIAN_POINT ( 'NONE',  ( 10.00000000000000000, 1.224646799147353256E-15, 0.000000000000000000 ) ) ;
#24 = ORIENTED_EDGE ( 'NONE', *, *, #127, .T. ) ;
#25 = CC_DESIGN_APPROVAL ( #30, ( #55 ) ) ;
#26 = CARTESIAN_POINT ( 'NONE',  ( 0.000000000000000000, 0.000000000000000000, 1.000000000000000000 ) ) ;
#27 = DIRECTION ( 'NONE',  ( -0.000000000000000000, -0.000000000000000000, -1.000000000000000000 ) ) ;
#28 = DIRECTION ( 'NONE',  ( -0.000000000000000000, -0.000000000000000000, -1.000000000000000000 ) ) ;
#29 = ADVANCED_FACE ( 'NONE', ( #51 ), #75, .T. ) ;
#30 = APPROVAL ( #70, 'UNSPECIFIED' ) ;
#31 = COORDINATED_UNIVERSAL_TIME_OFFSET ( 5, 0, .BEHIND. ) ;
#32 = PERSON_AND_ORGANIZATION_ROLE ( 'creator' ) ;
#33 = ADVANCED_FACE ( 'NONE', ( #50 ), #77, .T. ) ;
#34 = ORIENTED_EDGE ( 'NONE', *, *, #5, .T. ) ;
#35 = PRODUCT_DEFINITION_SHAPE ( 'NONE', 'NONE',  #57 ) ;
#36 = DIRECTION ( 'NONE',  ( 0.000000000000000000, 0.000000000000000000, 1.000000000000000000 ) ) ;
#37 = CARTESIAN_POINT ( 'NONE',  ( 0.000000000000000000, 0.000000000000000000, 1.000000000000000000 ) ) ;
#38 = ORIENTED_EDGE ( 'NONE', *, *, #127, .F. ) ;
#39 = PERSON_AND_ORGANIZATION ( #168, #40 ) ;
#40 = ORGANIZATION ( 'UNSPECIFIED', 'UNSPECIFIED', '' ) ;
#41 = PERSON_AND_ORGANIZATION_ROLE ( 'design_owner' ) ;
#42 = MECHANICAL_CONTEXT ( 'NONE', #144, 'mechanical' ) ;
#43 = CC_DESIGN_PERSON_AND_ORGANIZATION_ASSIGNMENT ( #169, #45, ( #71 ) ) ;
#44 = LOCAL_TIME ( 16, 40, 14.00000000000000000, #18 ) ;
#45 = PERSON_AND_ORGANIZATION_ROLE ( 'classification_officer' ) ;
#46 = ADVANCED_FACE ( 'NONE', ( #88 ), #138, .F. ) ;
#47 = CALENDAR_DATE ( 2022, 6, 6 ) ;
#48 = PERSON_AND_ORGANIZATION ( #168, #40 ) ;
#49 = ORIENTED_EDGE ( 'NONE', *, *, #16, .T. ) ;
#50 = FACE_OUTER_BOUND ( 'NONE', #91, .T. ) ;
#51 = FACE_OUTER_BOUND ( 'NONE', #139, .T. ) ;
#52 = CARTESIAN_POINT ( 'NONE',  ( 0.000000000000000000, 0.000000000000000000, 1.000000000000000000 ) ) ;
#53 = ORIENTED_EDGE ( 'NONE', *, *, #78, .T. ) ;
#54 = DIRECTION ( 'NONE',  ( -1.000000000000000000, 0.000000000000000000, 0.000000000000000000 ) ) ;
#55 = PRODUCT_DEFINITION_FORMATION_WITH_SPECIFIED_SOURCE ( 'ANY', '', #124, .NOT_KNOWN. ) ;
#56 = DATE_AND_TIME ( #115, #19 ) ;
#57 = PRODUCT_DEFINITION ( 'UNKNOWN', '', #55, #148 ) ;
#58 = AXIS2_PLACEMENT_3D ( 'NONE', #52, #105, #106 ) ;
#59 = DATE_TIME_ROLE ( 'creation_date' ) ;
#60 = APPROVAL_ROLE ( '' ) ;
#61 = VERTEX_POINT ( 'NONE', #23 ) ;
#62 = CARTESIAN_POINT ( 'NONE',  ( 0.000000000000000000, 0.000000000000000000, 0.000000000000000000 ) ) ;
#63 = CC_DESIGN_DATE_AND_TIME_ASSIGNMENT ( #10, #59, ( #57 ) ) ;
#64 = AXIS2_PLACEMENT_3D ( 'NONE', #109, #107, #167 ) ;
#65 = CYLINDRICAL_SURFACE ( 'NONE', #101, 10.00000000000000000 ) ;
#66 = APPLICATION_PROTOCOL_DEFINITION ( 'international standard', 'config_control_design', 1994, #144 ) ;
#67 = DIRECTION ( 'NONE',  ( -0.000000000000000000, -0.000000000000000000, -1.000000000000000000 ) ) ;
#68 = ADVANCED_BREP_SHAPE_REPRESENTATION ( 'Web Model 20464_20504', ( #95, #64 ), #76 ) ;
#69 = SECURITY_CLASSIFICATION_LEVEL ( 'unclassified' ) ;
#70 = APPROVAL_STATUS ( 'not_yet_approved' ) ;
#71 = SECURITY_CLASSIFICATION ( '', '', #69 ) ;
#72 = APPROVAL_ROLE ( '' ) ;
#73 = APPROVAL_STATUS ( 'not_yet_approved' ) ;
#74 = CARTESIAN_POINT ( 'NONE',  ( 0.000000000000000000, 0.000000000000000000, 0.000000000000000000 ) ) ;
#75 = CYLINDRICAL_SURFACE ( 'NONE', #136, 10.00000000000000000 ) ;
#76 =( GEOMETRIC_REPRESENTATION_CONTEXT ( 3 ) GLOBAL_UNCERTAINTY_ASSIGNED_CONTEXT ( ( #170 ) ) GLOBAL_UNIT_ASSIGNED_CONTEXT ( ( #142, #96, #14 ) ) REPRESENTATION_CONTEXT ( 'NONE', 'WORKASPACE' ) );
#77 = PLANE ( 'NONE',  #162 ) ;
#78 = EDGE_CURVE ( 'NONE', #117, #22, #157, .T. ) ;
#79 = ORIENTED_EDGE ( 'NONE', *, *, #5, .F. ) ;
#80 = CC_DESIGN_SECURITY_CLASSIFICATION ( #71, ( #55 ) ) ;
#81 = APPROVAL_ROLE ( '' ) ;
#82 = COORDINATED_UNIVERSAL_TIME_OFFSET ( 5, 0, .BEHIND. ) ;
#83 = CALENDAR_DATE ( 2022, 6, 6 ) ;
#84 = PERSON_AND_ORGANIZATION ( #168, #40 ) ;
#85 = PRODUCT_RELATED_PRODUCT_CATEGORY ( 'detail', '', ( #124 ) ) ;
#86 = ORIENTED_EDGE ( 'NONE', *, *, #78, .F. ) ;
#87 = EDGE_LOOP ( 'NONE', ( #12, #104 ) ) ;
#88 = FACE_OUTER_BOUND ( 'NONE', #87, .T. ) ;
#89 = CIRCLE ( 'NONE', #58, 10.00000000000000000 ) ;
#90 = ADVANCED_FACE ( 'NONE', ( #97 ), #65, .T. ) ;
#91 = EDGE_LOOP ( 'NONE', ( #24, #34 ) ) ;
#92 = DIRECTION ( 'NONE',  ( 0.000000000000000000, 0.000000000000000000, 1.000000000000000000 ) ) ;
#93 = CIRCLE ( 'NONE', #120, 10.00000000000000000 ) ;
#94 = PERSON_AND_ORGANIZATION ( #168, #40 ) ;
#95 = MANIFOLD_SOLID_BREP ( 'Boss-Extrude1', #121 ) ;
#96 =( NAMED_UNIT ( * ) PLANE_ANGLE_UNIT ( ) SI_UNIT ( $, .RADIAN. ) );
#97 = FACE_OUTER_BOUND ( 'NONE', #2, .T. ) ;
#98 = CC_DESIGN_PERSON_AND_ORGANIZATION_ASSIGNMENT ( #39, #41, ( #124 ) ) ;
#99 = APPROVAL_PERSON_ORGANIZATION ( #84, #110, #60 ) ;
#100 = APPROVAL_DATE_TIME ( #56, #110 ) ;
#101 = AXIS2_PLACEMENT_3D ( 'NONE', #166, #28, #54 ) ;
#102 = CALENDAR_DATE ( 2022, 6, 6 ) ;
#103 = VECTOR ( 'NONE', #67, 1000.000000000000000 ) ;
#104 = ORIENTED_EDGE ( 'NONE', *, *, #16, .F. ) ;
#105 = DIRECTION ( 'NONE',  ( 0.000000000000000000, 0.000000000000000000, 1.000000000000000000 ) ) ;
#106 = DIRECTION ( 'NONE',  ( 1.000000000000000000, 0.000000000000000000, 0.000000000000000000 ) ) ;
#107 = DIRECTION ( 'NONE',  ( 0.000000000000000000, 0.000000000000000000, 1.000000000000000000 ) ) ;
#108 = CARTESIAN_POINT ( 'NONE',  ( 10.00000000000000000, 1.224646799147353256E-15, 1.000000000000000000 ) ) ;
#109 = CARTESIAN_POINT ( 'NONE',  ( 0.000000000000000000, 0.000000000000000000, 0.000000000000000000 ) ) ;
#110 = APPROVAL ( #73, 'UNSPECIFIED' ) ;
#111 = COORDINATED_UNIVERSAL_TIME_OFFSET ( 5, 0, .BEHIND. ) ;
#112 = AXIS2_PLACEMENT_3D ( 'NONE', #62, #118, #174 ) ;
#113 = APPROVAL_DATE_TIME ( #149, #30 ) ;
#114 = APPROVAL ( #155, 'UNSPECIFIED' ) ;
#115 = CALENDAR_DATE ( 2022, 6, 6 ) ;
#116 = CC_DESIGN_PERSON_AND_ORGANIZATION_ASSIGNMENT ( #9, #32, ( #55 ) ) ;
#117 = VERTEX_POINT ( 'NONE', #128 ) ;
#118 = DIRECTION ( 'NONE',  ( 0.000000000000000000, 0.000000000000000000, 1.000000000000000000 ) ) ;
#119 = ORIENTED_EDGE ( 'NONE', *, *, #164, .T. ) ;
#120 = AXIS2_PLACEMENT_3D ( 'NONE', #26, #158, #125 ) ;
#121 = CLOSED_SHELL ( 'NONE', ( #90, #29, #33, #46 ) ) ;
#122 = CARTESIAN_POINT ( 'NONE',  ( -10.00000000000000000, 0.000000000000000000, 0.000000000000000000 ) ) ;
#123 = CARTESIAN_POINT ( 'NONE',  ( 0.000000000000000000, 0.000000000000000000, 0.000000000000000000 ) ) ;
#124 = PRODUCT ( 'Web Model 20464_20504', 'Web Model 20464_20504', '', ( #42 ) ) ;
#125 = DIRECTION ( 'NONE',  ( 1.000000000000000000, 0.000000000000000000, 0.000000000000000000 ) ) ;
#126 = LOCAL_TIME ( 16, 40, 14.00000000000000000, #151 ) ;
#127 = EDGE_CURVE ( 'NONE', #117, #13, #93, .T. ) ;
#128 = CARTESIAN_POINT ( 'NONE',  ( -10.00000000000000000, 0.000000000000000000, 1.000000000000000000 ) ) ;
#129 = CC_DESIGN_DATE_AND_TIME_ASSIGNMENT ( #135, #160, ( #71 ) ) ;
#130 = APPROVAL_DATE_TIME ( #7, #114 ) ;
#131 = PERSON_AND_ORGANIZATION ( #168, #40 ) ;
#132 = VECTOR ( 'NONE', #27, 1000.000000000000000 ) ;
#133 = EDGE_CURVE ( 'NONE', #13, #61, #4, .T. ) ;
#134 = CALENDAR_DATE ( 2022, 6, 6 ) ;
#135 = DATE_AND_TIME ( #134, #1 ) ;
#136 = AXIS2_PLACEMENT_3D ( 'NONE', #11, #137, #173 ) ;
#137 = DIRECTION ( 'NONE',  ( -0.000000000000000000, -0.000000000000000000, -1.000000000000000000 ) ) ;
#138 = PLANE ( 'NONE',  #112 ) ;
#139 = EDGE_LOOP ( 'NONE', ( #152, #38, #53, #119 ) ) ;
#140 = DIRECTION ( 'NONE',  ( 0.000000000000000000, 0.000000000000000000, 1.000000000000000000 ) ) ;
#141 = AXIS2_PLACEMENT_3D ( 'NONE', #123, #92, #143 ) ;
#142 =( LENGTH_UNIT ( ) NAMED_UNIT ( * ) SI_UNIT ( .MILLI., .METRE. ) );
#143 = DIRECTION ( 'NONE',  ( 1.000000000000000000, 0.000000000000000000, 0.000000000000000000 ) ) ;
#144 = APPLICATION_CONTEXT ( 'configuration controlled 3d designs of mechanical parts and assemblies' ) ;
#145 = APPROVAL_PERSON_ORGANIZATION ( #94, #114, #81 ) ;
#146 = APPROVAL_PERSON_ORGANIZATION ( #48, #30, #72 ) ;
#147 = PERSON_AND_ORGANIZATION ( #168, #40 ) ;
#148 = DESIGN_CONTEXT ( 'detailed design', #153, 'design' ) ;
#149 = DATE_AND_TIME ( #47, #126 ) ;
#150 = CC_DESIGN_PERSON_AND_ORGANIZATION_ASSIGNMENT ( #131, #20, ( #55 ) ) ;
#151 = COORDINATED_UNIVERSAL_TIME_OFFSET ( 5, 0, .BEHIND. ) ;
#152 = ORIENTED_EDGE ( 'NONE', *, *, #133, .F. ) ;
#153 = APPLICATION_CONTEXT ( 'configuration controlled 3d designs of mechanical parts and assemblies' ) ;
#154 = DIRECTION ( 'NONE',  ( 1.000000000000000000, 0.000000000000000000, -0.000000000000000000 ) ) ;
#155 = APPROVAL_STATUS ( 'not_yet_approved' ) ;
#156 = CARTESIAN_POINT ( 'NONE',  ( -10.00000000000000000, 0.000000000000000000, 1.000000000000000000 ) ) ;
#157 = LINE ( 'NONE', #156, #103 ) ;
#158 = DIRECTION ( 'NONE',  ( 0.000000000000000000, 0.000000000000000000, 1.000000000000000000 ) ) ;
#159 = LOCAL_TIME ( 16, 40, 14.00000000000000000, #82 ) ;
#160 = DATE_TIME_ROLE ( 'classification_date' ) ;
#161 = CC_DESIGN_APPROVAL ( #110, ( #71 ) ) ;
#162 = AXIS2_PLACEMENT_3D ( 'NONE', #37, #36, #154 ) ;
#163 = ORIENTED_EDGE ( 'NONE', *, *, #133, .T. ) ;
#164 = EDGE_CURVE ( 'NONE', #22, #61, #3, .T. ) ;
#165 = DIRECTION ( 'NONE',  ( 1.000000000000000000, 0.000000000000000000, 0.000000000000000000 ) ) ;
#166 = CARTESIAN_POINT ( 'NONE',  ( 0.000000000000000000, 0.000000000000000000, 1.000000000000000000 ) ) ;
#167 = DIRECTION ( 'NONE',  ( 1.000000000000000000, 0.000000000000000000, 0.000000000000000000 ) ) ;
#168 = PERSON ( 'UNSPECIFIED', 'UNSPECIFIED', 'UNSPECIFIED', ('UNSPECIFIED'), ('UNSPECIFIED'), ('UNSPECIFIED') ) ;
#169 = PERSON_AND_ORGANIZATION ( #168, #40 ) ;
#170 = UNCERTAINTY_MEASURE_WITH_UNIT (LENGTH_MEASURE( 1.000000000000000082E-05 ), #142, 'distance_accuracy_value', 'NONE');
#171 = PERSON_AND_ORGANIZATION_ROLE ( 'creator' ) ;
#172 = SHAPE_DEFINITION_REPRESENTATION ( #35, #68 ) ;
#173 = DIRECTION ( 'NONE',  ( -1.000000000000000000, 0.000000000000000000, 0.000000000000000000 ) ) ;
#174 = DIRECTION ( 'NONE',  ( 1.000000000000000000, 0.000000000000000000, -0.000000000000000000 ) ) ;
#175 = CC_DESIGN_PERSON_AND_ORGANIZATION_ASSIGNMENT ( #147, #171, ( #57 ) ) ;
ENDSEC;
END-ISO-10303-21;
