ISO-10303-21;
HEADER;
FILE_DESCRIPTION (( 'STEP AP203' ),
    '1' );
FILE_NAME ('Web Model 11863_11869.step',
    '2019-01-03T21:48:15',
    ( '' ),
    ( '' ),
    'SwSTEP 2.0',
    'SolidWorks 2016',
    '' );
FILE_SCHEMA (( 'CONFIG_CONTROL_DESIGN' ));
ENDSEC;

DATA;
#1 = EDGE_CURVE ( 'NONE', #154, #72, #133, .T. ) ;
#2 = CYLINDRICAL_SURFACE ( 'NONE', #145, 25.39999999999999900 ) ;
#3 = ORIENTED_EDGE ( 'NONE', *, *, #1, .F. ) ;
#4 = AXIS2_PLACEMENT_3D ( 'NONE', #105, #27, #26 ) ;
#5 = CARTESIAN_POINT ( 'NONE',  ( 0.0000000000000000000, 0.0000000000000000000, 1.500000000000000000 ) ) ;
#6 = CARTESIAN_POINT ( 'NONE',  ( -25.39999999999999900, 0.0000000000000000000, 1.500000000000000000 ) ) ;
#7 = ORIENTED_EDGE ( 'NONE', *, *, #170, .F. ) ;
#8 = PLANE ( 'NONE',  #90 ) ;
#9 = DIRECTION ( 'NONE',  ( -1.000000000000000000, 0.0000000000000000000, 0.0000000000000000000 ) ) ;
#10 = APPROVAL_ROLE ( '' ) ;
#11 = PERSON_AND_ORGANIZATION_ROLE ( 'creator' ) ;
#12 = AXIS2_PLACEMENT_3D ( 'NONE', #95, #83, #92 ) ;
#13 = CALENDAR_DATE ( 2019, 3, 1 ) ;
#14 = PRODUCT ( 'Web Model 11863_11869', 'Web Model 11863_11869', '', ( #140 ) ) ;
#15 = ORIENTED_EDGE ( 'NONE', *, *, #138, .T. ) ;
#16 = ADVANCED_FACE ( 'NONE', ( #60 ), #74, .T. ) ;
#17 = LOCAL_TIME ( 16, 48, 15.00000000000000000, #175 ) ;
#18 = PERSON_AND_ORGANIZATION ( #139, #143 ) ;
#19 = APPROVAL_PERSON_ORGANIZATION ( #21, #112, #150 ) ;
#20 = UNCERTAINTY_MEASURE_WITH_UNIT (LENGTH_MEASURE( 1.000000000000000100E-005 ), #160, 'distance_accuracy_value', 'NONE');
#21 = PERSON_AND_ORGANIZATION ( #139, #143 ) ;
#22 = CC_DESIGN_PERSON_AND_ORGANIZATION_ASSIGNMENT ( #98, #110, ( #14 ) ) ;
#23 = COORDINATED_UNIVERSAL_TIME_OFFSET ( 5, 0, .BEHIND. ) ;
#24 = PLANE ( 'NONE',  #12 ) ;
#25 = AXIS2_PLACEMENT_3D ( 'NONE', #50, #171, #134 ) ;
#26 = DIRECTION ( 'NONE',  ( 1.000000000000000000, 0.0000000000000000000, 0.0000000000000000000 ) ) ;
#27 = DIRECTION ( 'NONE',  ( 0.0000000000000000000, 0.0000000000000000000, 1.000000000000000000 ) ) ;
#28 = CC_DESIGN_PERSON_AND_ORGANIZATION_ASSIGNMENT ( #18, #29, ( #46 ) ) ;
#29 = PERSON_AND_ORGANIZATION_ROLE ( 'creator' ) ;
#30 = APPLICATION_CONTEXT ( 'configuration controlled 3d designs of mechanical parts and assemblies' ) ;
#31 = DATE_AND_TIME ( #67, #172 ) ;
#32 = DATE_TIME_ROLE ( 'creation_date' ) ;
#33 = APPROVAL_STATUS ( 'not_yet_approved' ) ;
#34 = CC_DESIGN_PERSON_AND_ORGANIZATION_ASSIGNMENT ( #115, #71, ( #46 ) ) ;
#35 = ORIENTED_EDGE ( 'NONE', *, *, #108, .F. ) ;
#36 = CC_DESIGN_APPROVAL ( #112, ( #155 ) ) ;
#37 = PERSON_AND_ORGANIZATION ( #139, #143 ) ;
#38 = EDGE_LOOP ( 'NONE', ( #127, #75 ) ) ;
#39 = DIRECTION ( 'NONE',  ( 1.000000000000000000, 0.0000000000000000000, -0.0000000000000000000 ) ) ;
#40 = CC_DESIGN_SECURITY_CLASSIFICATION ( #53, ( #46 ) ) ;
#41 = DIRECTION ( 'NONE',  ( 1.000000000000000000, 0.0000000000000000000, 0.0000000000000000000 ) ) ;
#42 = DIRECTION ( 'NONE',  ( -1.000000000000000000, 0.0000000000000000000, 0.0000000000000000000 ) ) ;
#43 = APPROVAL_STATUS ( 'not_yet_approved' ) ;
#44 = APPROVAL_ROLE ( '' ) ;
#45 = FACE_OUTER_BOUND ( 'NONE', #80, .T. ) ;
#46 = PRODUCT_DEFINITION_FORMATION_WITH_SPECIFIED_SOURCE ( 'ANY', '', #14, .NOT_KNOWN. ) ;
#47 = ORIENTED_EDGE ( 'NONE', *, *, #170, .T. ) ;
#48 = ORIENTED_EDGE ( 'NONE', *, *, #108, .T. ) ;
#49 = CC_DESIGN_DATE_AND_TIME_ASSIGNMENT ( #62, #70, ( #53 ) ) ;
#50 = CARTESIAN_POINT ( 'NONE',  ( 0.0000000000000000000, 0.0000000000000000000, -1.500000000000000000 ) ) ;
#51 = VECTOR ( 'NONE', #66, 1000.000000000000000 ) ;
#52 = DIRECTION ( 'NONE',  ( -0.0000000000000000000, -0.0000000000000000000, -1.000000000000000000 ) ) ;
#53 = SECURITY_CLASSIFICATION ( '', '', #109 ) ;
#54 = APPLICATION_PROTOCOL_DEFINITION ( 'international standard', 'config_control_design', 1994, #148 ) ;
#55 = CIRCLE ( 'NONE', #25, 25.39999999999999900 ) ;
#56 = APPLICATION_PROTOCOL_DEFINITION ( 'international standard', 'config_control_design', 1994, #30 ) ;
#57 = ADVANCED_FACE ( 'NONE', ( #153 ), #24, .F. ) ;
#58 = CC_DESIGN_APPROVAL ( #166, ( #53 ) ) ;
#59 = COORDINATED_UNIVERSAL_TIME_OFFSET ( 5, 0, .BEHIND. ) ;
#60 = FACE_OUTER_BOUND ( 'NONE', #169, .T. ) ;
#61 = PRODUCT_DEFINITION_SHAPE ( 'NONE', 'NONE',  #155 ) ;
#62 = DATE_AND_TIME ( #123, #87 ) ;
#63 = AXIS2_PLACEMENT_3D ( 'NONE', #5, #65, #42 ) ;
#64 = APPROVAL_DATE_TIME ( #168, #112 ) ;
#65 = DIRECTION ( 'NONE',  ( -0.0000000000000000000, -0.0000000000000000000, -1.000000000000000000 ) ) ;
#66 = DIRECTION ( 'NONE',  ( -0.0000000000000000000, -0.0000000000000000000, -1.000000000000000000 ) ) ;
#67 = CALENDAR_DATE ( 2019, 3, 1 ) ;
#68 = PRODUCT_RELATED_PRODUCT_CATEGORY ( 'detail', '', ( #14 ) ) ;
#69 = CARTESIAN_POINT ( 'NONE',  ( 0.0000000000000000000, 0.0000000000000000000, 0.0000000000000000000 ) ) ;
#70 = DATE_TIME_ROLE ( 'classification_date' ) ;
#71 = PERSON_AND_ORGANIZATION_ROLE ( 'design_supplier' ) ;
#72 = VERTEX_POINT ( 'NONE', #6 ) ;
#73 = AXIS2_PLACEMENT_3D ( 'NONE', #162, #119, #117 ) ;
#74 = CYLINDRICAL_SURFACE ( 'NONE', #63, 25.39999999999999900 ) ;
#75 = ORIENTED_EDGE ( 'NONE', *, *, #138, .F. ) ;
#76 = APPROVAL_PERSON_ORGANIZATION ( #167, #166, #10 ) ;
#77 = EDGE_LOOP ( 'NONE', ( #3, #125, #15, #7 ) ) ;
#78 = DIRECTION ( 'NONE',  ( -0.0000000000000000000, -0.0000000000000000000, -1.000000000000000000 ) ) ;
#79 = ADVANCED_BREP_SHAPE_REPRESENTATION ( 'Web Model 11863_11869', ( #136, #96 ), #163 ) ;
#80 = EDGE_LOOP ( 'NONE', ( #48, #149 ) ) ;
#81 = EDGE_CURVE ( 'NONE', #137, #102, #86, .T. ) ;
#82 =( NAMED_UNIT ( * ) PLANE_ANGLE_UNIT ( ) SI_UNIT ( $, .RADIAN. ) );
#83 = DIRECTION ( 'NONE',  ( 0.0000000000000000000, 0.0000000000000000000, 1.000000000000000000 ) ) ;
#84 = CALENDAR_DATE ( 2019, 3, 1 ) ;
#85 = APPROVAL_DATE_TIME ( #111, #104 ) ;
#86 = CIRCLE ( 'NONE', #73, 25.39999999999999900 ) ;
#87 = LOCAL_TIME ( 16, 48, 15.00000000000000000, #23 ) ;
#88 = DATE_AND_TIME ( #84, #17 ) ;
#89 = CLOSED_SHELL ( 'NONE', ( #128, #16, #164, #57 ) ) ;
#90 = AXIS2_PLACEMENT_3D ( 'NONE', #118, #120, #39 ) ;
#91 = AXIS2_PLACEMENT_3D ( 'NONE', #107, #116, #41 ) ;
#92 = DIRECTION ( 'NONE',  ( 1.000000000000000000, 0.0000000000000000000, -0.0000000000000000000 ) ) ;
#93 = COORDINATED_UNIVERSAL_TIME_OFFSET ( 5, 0, .BEHIND. ) ;
#94 = CARTESIAN_POINT ( 'NONE',  ( 0.0000000000000000000, 0.0000000000000000000, 1.500000000000000000 ) ) ;
#95 = CARTESIAN_POINT ( 'NONE',  ( 0.0000000000000000000, 0.0000000000000000000, -1.500000000000000000 ) ) ;
#96 = AXIS2_PLACEMENT_3D ( 'NONE', #69, #122, #165 ) ;
#97 = VECTOR ( 'NONE', #52, 1000.000000000000000 ) ;
#98 = PERSON_AND_ORGANIZATION ( #139, #143 ) ;
#99 = CC_DESIGN_PERSON_AND_ORGANIZATION_ASSIGNMENT ( #37, #11, ( #155 ) ) ;
#100 = LOCAL_TIME ( 16, 48, 15.00000000000000000, #141 ) ;
#101 = LOCAL_TIME ( 16, 48, 15.00000000000000000, #93 ) ;
#102 = VERTEX_POINT ( 'NONE', #147 ) ;
#103 = CARTESIAN_POINT ( 'NONE',  ( -25.39999999999999900, 0.0000000000000000000, -1.500000000000000000 ) ) ;
#104 = APPROVAL ( #33, 'UNSPECIFIED' ) ;
#105 = CARTESIAN_POINT ( 'NONE',  ( 0.0000000000000000000, 0.0000000000000000000, 1.500000000000000000 ) ) ;
#106 = CALENDAR_DATE ( 2019, 3, 1 ) ;
#107 = CARTESIAN_POINT ( 'NONE',  ( 0.0000000000000000000, 0.0000000000000000000, 1.500000000000000000 ) ) ;
#108 = EDGE_CURVE ( 'NONE', #72, #154, #124, .T. ) ;
#109 = SECURITY_CLASSIFICATION_LEVEL ( 'unclassified' ) ;
#110 = PERSON_AND_ORGANIZATION_ROLE ( 'design_owner' ) ;
#111 = DATE_AND_TIME ( #106, #100 ) ;
#112 = APPROVAL ( #43, 'UNSPECIFIED' ) ;
#113 = ORIENTED_EDGE ( 'NONE', *, *, #81, .T. ) ;
#114 = CC_DESIGN_PERSON_AND_ORGANIZATION_ASSIGNMENT ( #157, #126, ( #53 ) ) ;
#115 = PERSON_AND_ORGANIZATION ( #139, #143 ) ;
#116 = DIRECTION ( 'NONE',  ( 0.0000000000000000000, 0.0000000000000000000, 1.000000000000000000 ) ) ;
#117 = DIRECTION ( 'NONE',  ( 1.000000000000000000, 0.0000000000000000000, 0.0000000000000000000 ) ) ;
#118 = CARTESIAN_POINT ( 'NONE',  ( 0.0000000000000000000, 0.0000000000000000000, 1.500000000000000000 ) ) ;
#119 = DIRECTION ( 'NONE',  ( 0.0000000000000000000, 0.0000000000000000000, 1.000000000000000000 ) ) ;
#120 = DIRECTION ( 'NONE',  ( 0.0000000000000000000, 0.0000000000000000000, 1.000000000000000000 ) ) ;
#121 = EDGE_CURVE ( 'NONE', #154, #102, #130, .T. ) ;
#122 = DIRECTION ( 'NONE',  ( 0.0000000000000000000, 0.0000000000000000000, 1.000000000000000000 ) ) ;
#123 = CALENDAR_DATE ( 2019, 3, 1 ) ;
#124 = CIRCLE ( 'NONE', #91, 25.39999999999999900 ) ;
#125 = ORIENTED_EDGE ( 'NONE', *, *, #121, .T. ) ;
#126 = PERSON_AND_ORGANIZATION_ROLE ( 'classification_officer' ) ;
#127 = ORIENTED_EDGE ( 'NONE', *, *, #81, .F. ) ;
#128 = ADVANCED_FACE ( 'NONE', ( #129 ), #2, .T. ) ;
#129 = FACE_OUTER_BOUND ( 'NONE', #77, .T. ) ;
#130 = LINE ( 'NONE', #146, #51 ) ;
#131 = CC_DESIGN_APPROVAL ( #104, ( #46 ) ) ;
#132 = APPROVAL_DATE_TIME ( #88, #166 ) ;
#133 = CIRCLE ( 'NONE', #4, 25.39999999999999900 ) ;
#134 = DIRECTION ( 'NONE',  ( 1.000000000000000000, 0.0000000000000000000, 0.0000000000000000000 ) ) ;
#135 = CARTESIAN_POINT ( 'NONE',  ( -25.39999999999999900, 0.0000000000000000000, 1.500000000000000000 ) ) ;
#136 = MANIFOLD_SOLID_BREP ( 'Boss-Extrude1', #89 ) ;
#137 = VERTEX_POINT ( 'NONE', #103 ) ;
#138 = EDGE_CURVE ( 'NONE', #102, #137, #55, .T. ) ;
#140 = MECHANICAL_CONTEXT ( 'NONE', #148, 'mechanical' ) ;
#139 = PERSON ( 'UNSPECIFIED', 'UNSPECIFIED', 'UNSPECIFIED', ('UNSPECIFIED'), ('UNSPECIFIED'), ('UNSPECIFIED') ) ;
#141 = COORDINATED_UNIVERSAL_TIME_OFFSET ( 5, 0, .BEHIND. ) ;
#142 = APPROVAL_STATUS ( 'not_yet_approved' ) ;
#143 = ORGANIZATION ( 'UNSPECIFIED', 'UNSPECIFIED', '' ) ;
#144 = DESIGN_CONTEXT ( 'detailed design', #30, 'design' ) ;
#145 = AXIS2_PLACEMENT_3D ( 'NONE', #94, #78, #9 ) ;
#146 = CARTESIAN_POINT ( 'NONE',  ( 25.39999999999999900, 3.110602869834276900E-015, 1.500000000000000000 ) ) ;
#147 = CARTESIAN_POINT ( 'NONE',  ( 25.39999999999999900, 3.110602869834276900E-015, -1.500000000000000000 ) ) ;
#148 = APPLICATION_CONTEXT ( 'configuration controlled 3d designs of mechanical parts and assemblies' ) ;
#149 = ORIENTED_EDGE ( 'NONE', *, *, #1, .T. ) ;
#150 = APPROVAL_ROLE ( '' ) ;
#151 = APPROVAL_PERSON_ORGANIZATION ( #156, #104, #44 ) ;
#152 = CC_DESIGN_DATE_AND_TIME_ASSIGNMENT ( #31, #32, ( #155 ) ) ;
#153 = FACE_OUTER_BOUND ( 'NONE', #38, .T. ) ;
#154 = VERTEX_POINT ( 'NONE', #159 ) ;
#155 = PRODUCT_DEFINITION ( 'UNKNOWN', '', #46, #144 ) ;
#156 = PERSON_AND_ORGANIZATION ( #139, #143 ) ;
#157 = PERSON_AND_ORGANIZATION ( #139, #143 ) ;
#158 = SHAPE_DEFINITION_REPRESENTATION ( #61, #79 ) ;
#159 = CARTESIAN_POINT ( 'NONE',  ( 25.39999999999999900, 3.110602869834276900E-015, 1.500000000000000000 ) ) ;
#160 =( LENGTH_UNIT ( ) NAMED_UNIT ( * ) SI_UNIT ( .MILLI., .METRE. ) );
#161 = ORIENTED_EDGE ( 'NONE', *, *, #121, .F. ) ;
#162 = CARTESIAN_POINT ( 'NONE',  ( 0.0000000000000000000, 0.0000000000000000000, -1.500000000000000000 ) ) ;
#163 =( GEOMETRIC_REPRESENTATION_CONTEXT ( 3 ) GLOBAL_UNCERTAINTY_ASSIGNED_CONTEXT ( ( #20 ) ) GLOBAL_UNIT_ASSIGNED_CONTEXT ( ( #160, #82, #173 ) ) REPRESENTATION_CONTEXT ( 'NONE', 'WORKASPACE' ) );
#164 = ADVANCED_FACE ( 'NONE', ( #45 ), #8, .T. ) ;
#165 = DIRECTION ( 'NONE',  ( 1.000000000000000000, 0.0000000000000000000, 0.0000000000000000000 ) ) ;
#166 = APPROVAL ( #142, 'UNSPECIFIED' ) ;
#167 = PERSON_AND_ORGANIZATION ( #139, #143 ) ;
#168 = DATE_AND_TIME ( #13, #101 ) ;
#169 = EDGE_LOOP ( 'NONE', ( #161, #35, #47, #113 ) ) ;
#170 = EDGE_CURVE ( 'NONE', #72, #137, #174, .T. ) ;
#171 = DIRECTION ( 'NONE',  ( 0.0000000000000000000, 0.0000000000000000000, 1.000000000000000000 ) ) ;
#172 = LOCAL_TIME ( 16, 48, 15.00000000000000000, #59 ) ;
#173 =( NAMED_UNIT ( * ) SI_UNIT ( $, .STERADIAN. ) SOLID_ANGLE_UNIT ( ) );
#174 = LINE ( 'NONE', #135, #97 ) ;
#175 = COORDINATED_UNIVERSAL_TIME_OFFSET ( 5, 0, .BEHIND. ) ;
ENDSEC;
END-ISO-10303-21;
