ISO-10303-21;
HEADER;
FILE_DESCRIPTION (( 'STEP AP203' ),
    '1' );
FILE_NAME ('Web Model 45583_13305.step',
    '2020-11-03T21:53:24',
    ( '' ),
    ( '' ),
    'SwSTEP 2.0',
    'SolidWorks 2018',
    '' );
FILE_SCHEMA (( 'CONFIG_CONTROL_DESIGN' ));
ENDSEC;

DATA;
#1 = VECTOR ( 'NONE', #125, 1000.000000000000000 ) ;
#2 = ORGANIZATION ( 'UNSPECIFIED', 'UNSPECIFIED', '' ) ;
#3 = CC_DESIGN_PERSON_AND_ORGANIZATION_ASSIGNMENT ( #131, #40, ( #53 ) ) ;
#4 = ADVANCED_FACE ( 'NONE', ( #89 ), #106, .T. ) ;
#5 = EDGE_LOOP ( 'NONE', ( #155, #39 ) ) ;
#6 = APPROVAL_DATE_TIME ( #50, #129 ) ;
#7 = APPROVAL ( #162, 'UNSPECIFIED' ) ;
#8 = ORIENTED_EDGE ( 'NONE', *, *, #119, .T. ) ;
#9 = CARTESIAN_POINT ( 'NONE',  ( 0.0000000000000000000, 0.0000000000000000000, -4.000000000000000000 ) ) ;
#10 = APPLICATION_CONTEXT ( 'configuration controlled 3d designs of mechanical parts and assemblies' ) ;
#11 = APPROVAL_ROLE ( '' ) ;
#12 = CC_DESIGN_APPROVAL ( #7, ( #104 ) ) ;
#13 = APPROVAL ( #173, 'UNSPECIFIED' ) ;
#14 = AXIS2_PLACEMENT_3D ( 'NONE', #111, #113, #80 ) ;
#15 = PRODUCT ( 'Web Model 45583_13305', 'Web Model 45583_13305', '', ( #37 ) ) ;
#16 = VERTEX_POINT ( 'NONE', #46 ) ;
#17 = DIRECTION ( 'NONE',  ( 0.0000000000000000000, 0.0000000000000000000, 1.000000000000000000 ) ) ;
#18 = APPROVAL_ROLE ( '' ) ;
#19 = SECURITY_CLASSIFICATION ( '', '', #56 ) ;
#20 = CALENDAR_DATE ( 2020, 3, 11 ) ;
#21 = PERSON_AND_ORGANIZATION_ROLE ( 'creator' ) ;
#22 =( LENGTH_UNIT ( ) NAMED_UNIT ( * ) SI_UNIT ( .MILLI., .METRE. ) );
#23 = LOCAL_TIME ( 16, 53, 24.00000000000000000, #165 ) ;
#24 = AXIS2_PLACEMENT_3D ( 'NONE', #146, #91, #170 ) ;
#25 = COORDINATED_UNIVERSAL_TIME_OFFSET ( 5, 0, .BEHIND. ) ;
#26 = AXIS2_PLACEMENT_3D ( 'NONE', #161, #112, #150 ) ;
#27 = ADVANCED_FACE ( 'NONE', ( #116 ), #157, .T. ) ;
#28 = FACE_OUTER_BOUND ( 'NONE', #5, .T. ) ;
#29 = PERSON_AND_ORGANIZATION ( #100, #2 ) ;
#30 = DIRECTION ( 'NONE',  ( 1.000000000000000000, 0.0000000000000000000, 0.0000000000000000000 ) ) ;
#31 = LINE ( 'NONE', #35, #1 ) ;
#32 = EDGE_CURVE ( 'NONE', #127, #16, #79, .T. ) ;
#33 = COORDINATED_UNIVERSAL_TIME_OFFSET ( 5, 0, .BEHIND. ) ;
#34 = CC_DESIGN_PERSON_AND_ORGANIZATION_ASSIGNMENT ( #109, #151, ( #104 ) ) ;
#35 = CARTESIAN_POINT ( 'NONE',  ( -25.00000000000000000, 3.061616997868383043E-15, -4.000000000000000000 ) ) ;
#36 = DIRECTION ( 'NONE',  ( 0.0000000000000000000, 0.0000000000000000000, 1.000000000000000000 ) ) ;
#37 = MECHANICAL_CONTEXT ( 'NONE', #123, 'mechanical' ) ;
#38 = CC_DESIGN_PERSON_AND_ORGANIZATION_ASSIGNMENT ( #167, #21, ( #53 ) ) ;
#39 = ORIENTED_EDGE ( 'NONE', *, *, #32, .F. ) ;
#40 = PERSON_AND_ORGANIZATION_ROLE ( 'design_supplier' ) ;
#41 = CALENDAR_DATE ( 2020, 3, 11 ) ;
#42 = DATE_TIME_ROLE ( 'creation_date' ) ;
#43 = ORIENTED_EDGE ( 'NONE', *, *, #107, .T. ) ;
#44 = CIRCLE ( 'NONE', #76, 25.00000000000000000 ) ;
#45 = ORIENTED_EDGE ( 'NONE', *, *, #49, .T. ) ;
#46 = CARTESIAN_POINT ( 'NONE',  ( 25.00000000000000000, 0.0000000000000000000, -4.000000000000000000 ) ) ;
#47 = DIRECTION ( 'NONE',  ( 1.000000000000000000, 0.0000000000000000000, -0.0000000000000000000 ) ) ;
#48 = ORIENTED_EDGE ( 'NONE', *, *, #134, .F. ) ;
#49 = EDGE_CURVE ( 'NONE', #163, #118, #44, .T. ) ;
#50 = DATE_AND_TIME ( #97, #23 ) ;
#51 = CARTESIAN_POINT ( 'NONE',  ( 25.00000000000000000, 0.0000000000000000000, 0.0000000000000000000 ) ) ;
#52 = DIRECTION ( 'NONE',  ( 0.0000000000000000000, 0.0000000000000000000, 1.000000000000000000 ) ) ;
#53 = PRODUCT_DEFINITION_FORMATION_WITH_SPECIFIED_SOURCE ( 'ANY', '', #15, .NOT_KNOWN. ) ;
#54 = ORIENTED_EDGE ( 'NONE', *, *, #160, .T. ) ;
#55 = APPLICATION_PROTOCOL_DEFINITION ( 'international standard', 'config_control_design', 1994, #10 ) ;
#56 = SECURITY_CLASSIFICATION_LEVEL ( 'unclassified' ) ;
#57 = APPROVAL_DATE_TIME ( #78, #13 ) ;
#58 = ADVANCED_FACE ( 'NONE', ( #28 ), #122, .F. ) ;
#59 = APPROVAL_PERSON_ORGANIZATION ( #168, #129, #110 ) ;
#60 = CC_DESIGN_DATE_AND_TIME_ASSIGNMENT ( #128, #153, ( #19 ) ) ;
#61 = AXIS2_PLACEMENT_3D ( 'NONE', #108, #17, #47 ) ;
#62 = CARTESIAN_POINT ( 'NONE',  ( 0.0000000000000000000, 0.0000000000000000000, 0.0000000000000000000 ) ) ;
#63 = CC_DESIGN_PERSON_AND_ORGANIZATION_ASSIGNMENT ( #66, #68, ( #15 ) ) ;
#64 = DIRECTION ( 'NONE',  ( 0.0000000000000000000, 0.0000000000000000000, 1.000000000000000000 ) ) ;
#65 = DIRECTION ( 'NONE',  ( 0.0000000000000000000, 0.0000000000000000000, 1.000000000000000000 ) ) ;
#66 = PERSON_AND_ORGANIZATION ( #100, #2 ) ;
#67 = DIRECTION ( 'NONE',  ( 0.0000000000000000000, 0.0000000000000000000, 1.000000000000000000 ) ) ;
#68 = PERSON_AND_ORGANIZATION_ROLE ( 'design_owner' ) ;
#69 = APPROVAL_STATUS ( 'not_yet_approved' ) ;
#70 =( GEOMETRIC_REPRESENTATION_CONTEXT ( 3 ) GLOBAL_UNCERTAINTY_ASSIGNED_CONTEXT ( ( #169 ) ) GLOBAL_UNIT_ASSIGNED_CONTEXT ( ( #22, #175, #94 ) ) REPRESENTATION_CONTEXT ( 'NONE', 'WORKASPACE' ) );
#71 = LOCAL_TIME ( 16, 53, 24.00000000000000000, #25 ) ;
#72 = CC_DESIGN_SECURITY_CLASSIFICATION ( #19, ( #53 ) ) ;
#73 = EDGE_LOOP ( 'NONE', ( #54, #45 ) ) ;
#74 = COORDINATED_UNIVERSAL_TIME_OFFSET ( 5, 0, .BEHIND. ) ;
#75 = VECTOR ( 'NONE', #67, 1000.000000000000000 ) ;
#76 = AXIS2_PLACEMENT_3D ( 'NONE', #90, #65, #30 ) ;
#77 = DIRECTION ( 'NONE',  ( 1.000000000000000000, 0.0000000000000000000, 0.0000000000000000000 ) ) ;
#78 = DATE_AND_TIME ( #172, #103 ) ;
#79 = CIRCLE ( 'NONE', #171, 25.00000000000000000 ) ;
#80 = DIRECTION ( 'NONE',  ( 1.000000000000000000, 0.0000000000000000000, 0.0000000000000000000 ) ) ;
#81 = ORIENTED_EDGE ( 'NONE', *, *, #119, .F. ) ;
#82 = PERSON_AND_ORGANIZATION ( #100, #2 ) ;
#83 = CIRCLE ( 'NONE', #140, 25.00000000000000000 ) ;
#84 = CLOSED_SHELL ( 'NONE', ( #27, #4, #58, #99 ) ) ;
#85 = ORIENTED_EDGE ( 'NONE', *, *, #49, .F. ) ;
#86 = DIRECTION ( 'NONE',  ( 1.000000000000000000, 0.0000000000000000000, -0.0000000000000000000 ) ) ;
#87 = CARTESIAN_POINT ( 'NONE',  ( 25.00000000000000000, 0.0000000000000000000, -4.000000000000000000 ) ) ;
#88 = CC_DESIGN_APPROVAL ( #13, ( #19 ) ) ;
#89 = FACE_OUTER_BOUND ( 'NONE', #149, .T. ) ;
#90 = CARTESIAN_POINT ( 'NONE',  ( 0.0000000000000000000, 0.0000000000000000000, 0.0000000000000000000 ) ) ;
#91 = DIRECTION ( 'NONE',  ( 0.0000000000000000000, 0.0000000000000000000, 1.000000000000000000 ) ) ;
#92 = LOCAL_TIME ( 16, 53, 24.00000000000000000, #74 ) ;
#93 = PRODUCT_DEFINITION_SHAPE ( 'NONE', 'NONE',  #104 ) ;
#94 =( NAMED_UNIT ( * ) SI_UNIT ( $, .STERADIAN. ) SOLID_ANGLE_UNIT ( ) );
#95 = AXIS2_PLACEMENT_3D ( 'NONE', #62, #52, #86 ) ;
#96 = APPLICATION_PROTOCOL_DEFINITION ( 'international standard', 'config_control_design', 1994, #123 ) ;
#97 = CALENDAR_DATE ( 2020, 3, 11 ) ;
#98 = CALENDAR_DATE ( 2020, 3, 11 ) ;
#99 = ADVANCED_FACE ( 'NONE', ( #124 ), #135, .T. ) ;
#100 = PERSON ( 'UNSPECIFIED', 'UNSPECIFIED', 'UNSPECIFIED', ('UNSPECIFIED'), ('UNSPECIFIED'), ('UNSPECIFIED') ) ;
#101 = PRODUCT_RELATED_PRODUCT_CATEGORY ( 'detail', '', ( #15 ) ) ;
#102 = DATE_AND_TIME ( #20, #71 ) ;
#103 = LOCAL_TIME ( 16, 53, 24.00000000000000000, #33 ) ;
#104 = PRODUCT_DEFINITION ( 'UNKNOWN', '', #53, #133 ) ;
#105 = CARTESIAN_POINT ( 'NONE',  ( 0.0000000000000000000, 0.0000000000000000000, -4.000000000000000000 ) ) ;
#106 = CYLINDRICAL_SURFACE ( 'NONE', #24, 25.00000000000000000 ) ;
#107 = EDGE_CURVE ( 'NONE', #16, #127, #83, .T. ) ;
#108 = CARTESIAN_POINT ( 'NONE',  ( 0.0000000000000000000, 0.0000000000000000000, -4.000000000000000000 ) ) ;
#109 = PERSON_AND_ORGANIZATION ( #100, #2 ) ;
#110 = APPROVAL_ROLE ( '' ) ;
#111 = CARTESIAN_POINT ( 'NONE',  ( 0.0000000000000000000, 0.0000000000000000000, 0.0000000000000000000 ) ) ;
#112 = DIRECTION ( 'NONE',  ( 0.0000000000000000000, 0.0000000000000000000, 1.000000000000000000 ) ) ;
#113 = DIRECTION ( 'NONE',  ( 0.0000000000000000000, 0.0000000000000000000, 1.000000000000000000 ) ) ;
#114 = ORIENTED_EDGE ( 'NONE', *, *, #32, .T. ) ;
#115 = MANIFOLD_SOLID_BREP ( 'Extrude1', #84 ) ;
#116 = FACE_OUTER_BOUND ( 'NONE', #121, .T. ) ;
#117 = AXIS2_PLACEMENT_3D ( 'NONE', #105, #36, #159 ) ;
#118 = VERTEX_POINT ( 'NONE', #51 ) ;
#119 = EDGE_CURVE ( 'NONE', #16, #118, #152, .T. ) ;
#120 = ADVANCED_BREP_SHAPE_REPRESENTATION ( 'Web Model 45583_13305', ( #115, #14 ), #70 ) ;
#121 = EDGE_LOOP ( 'NONE', ( #43, #156, #154, #81 ) ) ;
#122 = PLANE ( 'NONE',  #61 ) ;
#123 = APPLICATION_CONTEXT ( 'configuration controlled 3d designs of mechanical parts and assemblies' ) ;
#124 = FACE_OUTER_BOUND ( 'NONE', #73, .T. ) ;
#125 = DIRECTION ( 'NONE',  ( 0.0000000000000000000, 0.0000000000000000000, 1.000000000000000000 ) ) ;
#126 = CC_DESIGN_DATE_AND_TIME_ASSIGNMENT ( #102, #42, ( #104 ) ) ;
#127 = VERTEX_POINT ( 'NONE', #137 ) ;
#128 = DATE_AND_TIME ( #41, #92 ) ;
#129 = APPROVAL ( #69, 'UNSPECIFIED' ) ;
#130 = APPROVAL_PERSON_ORGANIZATION ( #29, #7, #11 ) ;
#131 = PERSON_AND_ORGANIZATION ( #100, #2 ) ;
#132 = CARTESIAN_POINT ( 'NONE',  ( 0.0000000000000000000, 0.0000000000000000000, -4.000000000000000000 ) ) ;
#133 = DESIGN_CONTEXT ( 'detailed design', #10, 'design' ) ;
#134 = EDGE_CURVE ( 'NONE', #127, #163, #31, .T. ) ;
#135 = PLANE ( 'NONE',  #95 ) ;
#136 = APPROVAL_DATE_TIME ( #141, #7 ) ;
#137 = CARTESIAN_POINT ( 'NONE',  ( -25.00000000000000000, 3.061616997868383043E-15, -4.000000000000000000 ) ) ;
#138 = CARTESIAN_POINT ( 'NONE',  ( -25.00000000000000000, 3.061616997868383043E-15, 0.0000000000000000000 ) ) ;
#139 = PERSON_AND_ORGANIZATION_ROLE ( 'classification_officer' ) ;
#140 = AXIS2_PLACEMENT_3D ( 'NONE', #9, #64, #77 ) ;
#141 = DATE_AND_TIME ( #98, #143 ) ;
#142 = CIRCLE ( 'NONE', #26, 25.00000000000000000 ) ;
#143 = LOCAL_TIME ( 16, 53, 24.00000000000000000, #174 ) ;
#144 = APPROVAL_PERSON_ORGANIZATION ( #82, #13, #18 ) ;
#145 = DIRECTION ( 'NONE',  ( 1.000000000000000000, 0.0000000000000000000, 0.0000000000000000000 ) ) ;
#146 = CARTESIAN_POINT ( 'NONE',  ( 0.0000000000000000000, 0.0000000000000000000, -4.000000000000000000 ) ) ;
#147 = CC_DESIGN_PERSON_AND_ORGANIZATION_ASSIGNMENT ( #164, #139, ( #19 ) ) ;
#148 = DIRECTION ( 'NONE',  ( 0.0000000000000000000, 0.0000000000000000000, 1.000000000000000000 ) ) ;
#149 = EDGE_LOOP ( 'NONE', ( #48, #114, #8, #85 ) ) ;
#150 = DIRECTION ( 'NONE',  ( 1.000000000000000000, 0.0000000000000000000, 0.0000000000000000000 ) ) ;
#151 = PERSON_AND_ORGANIZATION_ROLE ( 'creator' ) ;
#152 = LINE ( 'NONE', #87, #75 ) ;
#153 = DATE_TIME_ROLE ( 'classification_date' ) ;
#154 = ORIENTED_EDGE ( 'NONE', *, *, #160, .F. ) ;
#155 = ORIENTED_EDGE ( 'NONE', *, *, #107, .F. ) ;
#156 = ORIENTED_EDGE ( 'NONE', *, *, #134, .T. ) ;
#157 = CYLINDRICAL_SURFACE ( 'NONE', #117, 25.00000000000000000 ) ;
#158 = CC_DESIGN_APPROVAL ( #129, ( #53 ) ) ;
#159 = DIRECTION ( 'NONE',  ( 1.000000000000000000, 0.0000000000000000000, 0.0000000000000000000 ) ) ;
#160 = EDGE_CURVE ( 'NONE', #118, #163, #142, .T. ) ;
#161 = CARTESIAN_POINT ( 'NONE',  ( 0.0000000000000000000, 0.0000000000000000000, 0.0000000000000000000 ) ) ;
#162 = APPROVAL_STATUS ( 'not_yet_approved' ) ;
#163 = VERTEX_POINT ( 'NONE', #138 ) ;
#164 = PERSON_AND_ORGANIZATION ( #100, #2 ) ;
#165 = COORDINATED_UNIVERSAL_TIME_OFFSET ( 5, 0, .BEHIND. ) ;
#166 = SHAPE_DEFINITION_REPRESENTATION ( #93, #120 ) ;
#167 = PERSON_AND_ORGANIZATION ( #100, #2 ) ;
#168 = PERSON_AND_ORGANIZATION ( #100, #2 ) ;
#169 = UNCERTAINTY_MEASURE_WITH_UNIT (LENGTH_MEASURE( 1.000000000000000082E-05 ), #22, 'distance_accuracy_value', 'NONE');
#170 = DIRECTION ( 'NONE',  ( 1.000000000000000000, 0.0000000000000000000, 0.0000000000000000000 ) ) ;
#171 = AXIS2_PLACEMENT_3D ( 'NONE', #132, #148, #145 ) ;
#172 = CALENDAR_DATE ( 2020, 3, 11 ) ;
#173 = APPROVAL_STATUS ( 'not_yet_approved' ) ;
#174 = COORDINATED_UNIVERSAL_TIME_OFFSET ( 5, 0, .BEHIND. ) ;
#175 =( NAMED_UNIT ( * ) PLANE_ANGLE_UNIT ( ) SI_UNIT ( $, .RADIAN. ) );
ENDSEC;
END-ISO-10303-21;
