ISO-10303-21;
HEADER;
FILE_DESCRIPTION (( 'STEP AP203' ),
    '1' );
FILE_NAME ('Web Model 84484_48194.step',
    '2017-05-19T15:03:24',
    ( '' ),
    ( '' ),
    'SwSTEP 2.0',
    'SolidWorks 2016',
    '' );
FILE_SCHEMA (( 'CONFIG_CONTROL_DESIGN' ));
ENDSEC;

DATA;
#1 = APPROVAL_PERSON_ORGANIZATION ( #7, #126, #10 ) ;
#2 = PRODUCT_RELATED_PRODUCT_CATEGORY ( 'detail', '', ( #80 ) ) ;
#3 = CALENDAR_DATE ( 2017, 19, 5 ) ;
#4 = AXIS2_PLACEMENT_3D ( 'NONE', #75, #168, #171 ) ;
#5 = CARTESIAN_POINT ( 'NONE',  ( 0.0000000000000000000, 0.0000000000000000000, 0.0000000000000000000 ) ) ;
#6 = DIRECTION ( 'NONE',  ( 1.000000000000000000, 0.0000000000000000000, 0.0000000000000000000 ) ) ;
#7 = PERSON_AND_ORGANIZATION ( #83, #153 ) ;
#8 = EDGE_CURVE ( 'NONE', #137, #69, #164, .T. ) ;
#9 = DIRECTION ( 'NONE',  ( 1.000000000000000000, 0.0000000000000000000, 0.0000000000000000000 ) ) ;
#10 = APPROVAL_ROLE ( '' ) ;
#11 = ORIENTED_EDGE ( 'NONE', *, *, #114, .F. ) ;
#12 = PERSON_AND_ORGANIZATION ( #83, #153 ) ;
#13 = COORDINATED_UNIVERSAL_TIME_OFFSET ( 5, 0, .BEHIND. ) ;
#14 = EDGE_LOOP ( 'NONE', ( #59, #40, #65, #11 ) ) ;
#15 = AXIS2_PLACEMENT_3D ( 'NONE', #18, #47, #98 ) ;
#16 = ORIENTED_EDGE ( 'NONE', *, *, #39, .F. ) ;
#17 = EDGE_CURVE ( 'NONE', #26, #123, #125, .T. ) ;
#18 = CARTESIAN_POINT ( 'NONE',  ( 0.0000000000000000000, 0.0000000000000000000, 0.0000000000000000000 ) ) ;
#19 = CARTESIAN_POINT ( 'NONE',  ( 6.250000000000000000, 7.654042494670957600E-016, 2.000000000000000000 ) ) ;
#20 = DIRECTION ( 'NONE',  ( -0.0000000000000000000, -0.0000000000000000000, -1.000000000000000000 ) ) ;
#21 = PRODUCT_DEFINITION_SHAPE ( 'NONE', 'NONE',  #62 ) ;
#22 = DIRECTION ( 'NONE',  ( 0.0000000000000000000, 0.0000000000000000000, 1.000000000000000000 ) ) ;
#23 = APPROVAL ( #77, 'UNSPECIFIED' ) ;
#24 = APPROVAL_STATUS ( 'not_yet_approved' ) ;
#25 = PERSON_AND_ORGANIZATION_ROLE ( 'design_supplier' ) ;
#26 = VERTEX_POINT ( 'NONE', #61 ) ;
#27 = APPROVAL_DATE_TIME ( #141, #23 ) ;
#28 = AXIS2_PLACEMENT_3D ( 'NONE', #88, #20, #92 ) ;
#29 = EDGE_CURVE ( 'NONE', #69, #137, #86, .T. ) ;
#30 = LOCAL_TIME ( 11, 3, 24.00000000000000000, #167 ) ;
#31 = DIRECTION ( 'NONE',  ( -0.0000000000000000000, -0.0000000000000000000, -1.000000000000000000 ) ) ;
#32 = DIRECTION ( 'NONE',  ( -0.0000000000000000000, -0.0000000000000000000, -1.000000000000000000 ) ) ;
#33 = PLANE ( 'NONE',  #145 ) ;
#34 = ORIENTED_EDGE ( 'NONE', *, *, #114, .T. ) ;
#35 = AXIS2_PLACEMENT_3D ( 'NONE', #48, #72, #105 ) ;
#36 = APPROVAL_DATE_TIME ( #115, #139 ) ;
#37 = MECHANICAL_CONTEXT ( 'NONE', #150, 'mechanical' ) ;
#38 = CALENDAR_DATE ( 2017, 19, 5 ) ;
#39 = EDGE_CURVE ( 'NONE', #123, #26, #144, .T. ) ;
#40 = ORIENTED_EDGE ( 'NONE', *, *, #156, .T. ) ;
#41 = DATE_AND_TIME ( #38, #147 ) ;
#42 = FACE_OUTER_BOUND ( 'NONE', #119, .T. ) ;
#43 = CALENDAR_DATE ( 2017, 19, 5 ) ;
#44 = COORDINATED_UNIVERSAL_TIME_OFFSET ( 5, 0, .BEHIND. ) ;
#45 = CARTESIAN_POINT ( 'NONE',  ( 0.0000000000000000000, 0.0000000000000000000, 2.000000000000000000 ) ) ;
#46 = DESIGN_CONTEXT ( 'detailed design', #64, 'design' ) ;
#47 = DIRECTION ( 'NONE',  ( 0.0000000000000000000, 0.0000000000000000000, 1.000000000000000000 ) ) ;
#48 = CARTESIAN_POINT ( 'NONE',  ( 0.0000000000000000000, 0.0000000000000000000, 2.000000000000000000 ) ) ;
#49 =( LENGTH_UNIT ( ) NAMED_UNIT ( * ) SI_UNIT ( .MILLI., .METRE. ) );
#50 = CC_DESIGN_PERSON_AND_ORGANIZATION_ASSIGNMENT ( #111, #174, ( #101 ) ) ;
#51 = APPLICATION_PROTOCOL_DEFINITION ( 'international standard', 'config_control_design', 1994, #64 ) ;
#52 = PERSON_AND_ORGANIZATION_ROLE ( 'creator' ) ;
#53 =( NAMED_UNIT ( * ) SI_UNIT ( $, .STERADIAN. ) SOLID_ANGLE_UNIT ( ) );
#54 = APPROVAL_DATE_TIME ( #148, #126 ) ;
#55 = EDGE_LOOP ( 'NONE', ( #99, #140 ) ) ;
#56 = PERSON_AND_ORGANIZATION ( #83, #153 ) ;
#57 = AXIS2_PLACEMENT_3D ( 'NONE', #45, #161, #9 ) ;
#58 = MANIFOLD_SOLID_BREP ( 'Extrude1', #146 ) ;
#59 = ORIENTED_EDGE ( 'NONE', *, *, #17, .F. ) ;
#60 = AXIS2_PLACEMENT_3D ( 'NONE', #120, #107, #158 ) ;
#61 = CARTESIAN_POINT ( 'NONE',  ( 6.250000000000000000, 7.654042494670957600E-016, 2.000000000000000000 ) ) ;
#62 = PRODUCT_DEFINITION ( 'UNKNOWN', '', #101, #46 ) ;
#63 = PERSON_AND_ORGANIZATION_ROLE ( 'classification_officer' ) ;
#64 = APPLICATION_CONTEXT ( 'configuration controlled 3d designs of mechanical parts and assemblies' ) ;
#65 = ORIENTED_EDGE ( 'NONE', *, *, #29, .T. ) ;
#66 =( NAMED_UNIT ( * ) PLANE_ANGLE_UNIT ( ) SI_UNIT ( $, .RADIAN. ) );
#67 = FACE_OUTER_BOUND ( 'NONE', #94, .T. ) ;
#68 = AXIS2_PLACEMENT_3D ( 'NONE', #106, #22, #159 ) ;
#69 = VERTEX_POINT ( 'NONE', #91 ) ;
#70 = LINE ( 'NONE', #160, #142 ) ;
#71 = CC_DESIGN_DATE_AND_TIME_ASSIGNMENT ( #73, #151, ( #62 ) ) ;
#72 = DIRECTION ( 'NONE',  ( -0.0000000000000000000, -0.0000000000000000000, -1.000000000000000000 ) ) ;
#73 = DATE_AND_TIME ( #157, #30 ) ;
#74 = CARTESIAN_POINT ( 'NONE',  ( 0.0000000000000000000, 0.0000000000000000000, 0.0000000000000000000 ) ) ;
#75 = CARTESIAN_POINT ( 'NONE',  ( 0.0000000000000000000, 0.0000000000000000000, 2.000000000000000000 ) ) ;
#76 = DIRECTION ( 'NONE',  ( 0.0000000000000000000, 0.0000000000000000000, 1.000000000000000000 ) ) ;
#77 = APPROVAL_STATUS ( 'not_yet_approved' ) ;
#78 = SECURITY_CLASSIFICATION_LEVEL ( 'unclassified' ) ;
#79 = FACE_OUTER_BOUND ( 'NONE', #14, .T. ) ;
#80 = PRODUCT ( 'Web Model 84484_48194', 'Web Model 84484_48194', '', ( #37 ) ) ;
#81 = PERSON_AND_ORGANIZATION ( #83, #153 ) ;
#82 = CC_DESIGN_PERSON_AND_ORGANIZATION_ASSIGNMENT ( #81, #25, ( #101 ) ) ;
#83 = PERSON ( 'UNSPECIFIED', 'UNSPECIFIED', 'UNSPECIFIED', ('UNSPECIFIED'), ('UNSPECIFIED'), ('UNSPECIFIED') ) ;
#84 = ORIENTED_EDGE ( 'NONE', *, *, #29, .F. ) ;
#85 = LOCAL_TIME ( 11, 3, 24.00000000000000000, #13 ) ;
#86 = CIRCLE ( 'NONE', #68, 6.250000000000000000 ) ;
#87 = CC_DESIGN_SECURITY_CLASSIFICATION ( #117, ( #101 ) ) ;
#88 = CARTESIAN_POINT ( 'NONE',  ( 0.0000000000000000000, 0.0000000000000000000, 2.000000000000000000 ) ) ;
#89 = PLANE ( 'NONE',  #60 ) ;
#90 = LOCAL_TIME ( 11, 3, 24.00000000000000000, #44 ) ;
#91 = CARTESIAN_POINT ( 'NONE',  ( 6.250000000000000000, 7.654042494670957600E-016, 0.0000000000000000000 ) ) ;
#92 = DIRECTION ( 'NONE',  ( -1.000000000000000000, 0.0000000000000000000, 0.0000000000000000000 ) ) ;
#93 =( GEOMETRIC_REPRESENTATION_CONTEXT ( 3 ) GLOBAL_UNCERTAINTY_ASSIGNED_CONTEXT ( ( #129 ) ) GLOBAL_UNIT_ASSIGNED_CONTEXT ( ( #49, #66, #53 ) ) REPRESENTATION_CONTEXT ( 'NONE', 'WORKASPACE' ) );
#94 = EDGE_LOOP ( 'NONE', ( #169, #16, #34, #166 ) ) ;
#95 = APPROVAL_STATUS ( 'not_yet_approved' ) ;
#96 = COORDINATED_UNIVERSAL_TIME_OFFSET ( 5, 0, .BEHIND. ) ;
#97 = LINE ( 'NONE', #19, #130 ) ;
#98 = DIRECTION ( 'NONE',  ( 1.000000000000000000, 0.0000000000000000000, 0.0000000000000000000 ) ) ;
#99 = ORIENTED_EDGE ( 'NONE', *, *, #39, .T. ) ;
#100 = ADVANCED_FACE ( 'NONE', ( #116 ), #89, .T. ) ;
#101 = PRODUCT_DEFINITION_FORMATION_WITH_SPECIFIED_SOURCE ( 'ANY', '', #80, .NOT_KNOWN. ) ;
#102 = CALENDAR_DATE ( 2017, 19, 5 ) ;
#103 = ADVANCED_FACE ( 'NONE', ( #42 ), #33, .F. ) ;
#104 = ADVANCED_BREP_SHAPE_REPRESENTATION ( 'Web Model 84484_48194', ( #58, #15 ), #93 ) ;
#105 = DIRECTION ( 'NONE',  ( -1.000000000000000000, 0.0000000000000000000, 0.0000000000000000000 ) ) ;
#106 = CARTESIAN_POINT ( 'NONE',  ( 0.0000000000000000000, 0.0000000000000000000, 0.0000000000000000000 ) ) ;
#107 = DIRECTION ( 'NONE',  ( 0.0000000000000000000, 0.0000000000000000000, 1.000000000000000000 ) ) ;
#108 = PERSON_AND_ORGANIZATION ( #83, #153 ) ;
#109 = CYLINDRICAL_SURFACE ( 'NONE', #28, 6.250000000000000000 ) ;
#110 = APPLICATION_PROTOCOL_DEFINITION ( 'international standard', 'config_control_design', 1994, #150 ) ;
#111 = PERSON_AND_ORGANIZATION ( #83, #153 ) ;
#112 = CC_DESIGN_PERSON_AND_ORGANIZATION_ASSIGNMENT ( #152, #63, ( #117 ) ) ;
#113 = COORDINATED_UNIVERSAL_TIME_OFFSET ( 5, 0, .BEHIND. ) ;
#114 = EDGE_CURVE ( 'NONE', #123, #137, #70, .T. ) ;
#115 = DATE_AND_TIME ( #43, #162 ) ;
#116 = FACE_OUTER_BOUND ( 'NONE', #55, .T. ) ;
#117 = SECURITY_CLASSIFICATION ( '', '', #78 ) ;
#118 = ADVANCED_FACE ( 'NONE', ( #79 ), #109, .T. ) ;
#119 = EDGE_LOOP ( 'NONE', ( #128, #84 ) ) ;
#120 = CARTESIAN_POINT ( 'NONE',  ( 0.0000000000000000000, 0.0000000000000000000, 2.000000000000000000 ) ) ;
#121 = CARTESIAN_POINT ( 'NONE',  ( -6.250000000000000000, 0.0000000000000000000, 2.000000000000000000 ) ) ;
#122 = CC_DESIGN_DATE_AND_TIME_ASSIGNMENT ( #41, #173, ( #117 ) ) ;
#123 = VERTEX_POINT ( 'NONE', #121 ) ;
#124 = AXIS2_PLACEMENT_3D ( 'NONE', #74, #76, #6 ) ;
#125 = CIRCLE ( 'NONE', #4, 6.250000000000000000 ) ;
#126 = APPROVAL ( #95, 'UNSPECIFIED' ) ;
#127 = APPROVAL_PERSON_ORGANIZATION ( #175, #23, #136 ) ;
#128 = ORIENTED_EDGE ( 'NONE', *, *, #8, .F. ) ;
#129 = UNCERTAINTY_MEASURE_WITH_UNIT (LENGTH_MEASURE( 1.000000000000000100E-005 ), #49, 'distance_accuracy_value', 'NONE');
#130 = VECTOR ( 'NONE', #31, 1000.000000000000000 ) ;
#131 = CARTESIAN_POINT ( 'NONE',  ( -6.250000000000000000, 0.0000000000000000000, 0.0000000000000000000 ) ) ;
#132 = CC_DESIGN_PERSON_AND_ORGANIZATION_ASSIGNMENT ( #56, #149, ( #80 ) ) ;
#133 = DIRECTION ( 'NONE',  ( 1.000000000000000000, 0.0000000000000000000, -0.0000000000000000000 ) ) ;
#134 = SHAPE_DEFINITION_REPRESENTATION ( #21, #104 ) ;
#135 = APPROVAL_ROLE ( '' ) ;
#136 = APPROVAL_ROLE ( '' ) ;
#137 = VERTEX_POINT ( 'NONE', #131 ) ;
#138 = CC_DESIGN_APPROVAL ( #126, ( #117 ) ) ;
#139 = APPROVAL ( #24, 'UNSPECIFIED' ) ;
#140 = ORIENTED_EDGE ( 'NONE', *, *, #17, .T. ) ;
#141 = DATE_AND_TIME ( #102, #85 ) ;
#142 = VECTOR ( 'NONE', #32, 1000.000000000000000 ) ;
#143 = ADVANCED_FACE ( 'NONE', ( #67 ), #165, .T. ) ;
#144 = CIRCLE ( 'NONE', #57, 6.250000000000000000 ) ;
#145 = AXIS2_PLACEMENT_3D ( 'NONE', #5, #172, #133 ) ;
#146 = CLOSED_SHELL ( 'NONE', ( #118, #143, #100, #103 ) ) ;
#147 = LOCAL_TIME ( 11, 3, 24.00000000000000000, #113 ) ;
#148 = DATE_AND_TIME ( #3, #90 ) ;
#149 = PERSON_AND_ORGANIZATION_ROLE ( 'design_owner' ) ;
#150 = APPLICATION_CONTEXT ( 'configuration controlled 3d designs of mechanical parts and assemblies' ) ;
#151 = DATE_TIME_ROLE ( 'creation_date' ) ;
#152 = PERSON_AND_ORGANIZATION ( #83, #153 ) ;
#153 = ORGANIZATION ( 'UNSPECIFIED', 'UNSPECIFIED', '' ) ;
#154 = CC_DESIGN_APPROVAL ( #139, ( #101 ) ) ;
#155 = APPROVAL_PERSON_ORGANIZATION ( #12, #139, #135 ) ;
#156 = EDGE_CURVE ( 'NONE', #26, #69, #97, .T. ) ;
#157 = CALENDAR_DATE ( 2017, 19, 5 ) ;
#158 = DIRECTION ( 'NONE',  ( 1.000000000000000000, 0.0000000000000000000, -0.0000000000000000000 ) ) ;
#159 = DIRECTION ( 'NONE',  ( 1.000000000000000000, 0.0000000000000000000, 0.0000000000000000000 ) ) ;
#160 = CARTESIAN_POINT ( 'NONE',  ( -6.250000000000000000, 0.0000000000000000000, 2.000000000000000000 ) ) ;
#161 = DIRECTION ( 'NONE',  ( 0.0000000000000000000, 0.0000000000000000000, 1.000000000000000000 ) ) ;
#162 = LOCAL_TIME ( 11, 3, 24.00000000000000000, #96 ) ;
#163 = CC_DESIGN_PERSON_AND_ORGANIZATION_ASSIGNMENT ( #108, #52, ( #62 ) ) ;
#164 = CIRCLE ( 'NONE', #124, 6.250000000000000000 ) ;
#165 = CYLINDRICAL_SURFACE ( 'NONE', #35, 6.250000000000000000 ) ;
#166 = ORIENTED_EDGE ( 'NONE', *, *, #8, .T. ) ;
#167 = COORDINATED_UNIVERSAL_TIME_OFFSET ( 5, 0, .BEHIND. ) ;
#168 = DIRECTION ( 'NONE',  ( 0.0000000000000000000, 0.0000000000000000000, 1.000000000000000000 ) ) ;
#169 = ORIENTED_EDGE ( 'NONE', *, *, #156, .F. ) ;
#170 = CC_DESIGN_APPROVAL ( #23, ( #62 ) ) ;
#171 = DIRECTION ( 'NONE',  ( 1.000000000000000000, 0.0000000000000000000, 0.0000000000000000000 ) ) ;
#172 = DIRECTION ( 'NONE',  ( 0.0000000000000000000, 0.0000000000000000000, 1.000000000000000000 ) ) ;
#173 = DATE_TIME_ROLE ( 'classification_date' ) ;
#174 = PERSON_AND_ORGANIZATION_ROLE ( 'creator' ) ;
#175 = PERSON_AND_ORGANIZATION ( #83, #153 ) ;
ENDSEC;
END-ISO-10303-21;
