ISO-10303-21;
HEADER;
FILE_DESCRIPTION (( 'STEP AP203' ),
    '1' );
FILE_NAME ('Web Model 37688_39014.step',
    '2018-10-18T19:42:51',
    ( '' ),
    ( '' ),
    'SwSTEP 2.0',
    'SolidWorks 2016',
    '' );
FILE_SCHEMA (( 'CONFIG_CONTROL_DESIGN' ));
ENDSEC;

DATA;
#1 = APPROVAL ( #172, 'UNSPECIFIED' ) ;
#2 = ORIENTED_EDGE ( 'NONE', *, *, #49, .T. ) ;
#3 = CALENDAR_DATE ( 2018, 18, 10 ) ;
#4 = PRODUCT_DEFINITION_SHAPE ( 'NONE', 'NONE',  #74 ) ;
#5 = DIRECTION ( 'NONE',  ( 0.0000000000000000000, 0.0000000000000000000, 1.000000000000000000 ) ) ;
#6 = DIRECTION ( 'NONE',  ( 0.0000000000000000000, 0.0000000000000000000, 1.000000000000000000 ) ) ;
#7 = PLANE ( 'NONE',  #53 ) ;
#8 = ORIENTED_EDGE ( 'NONE', *, *, #124, .T. ) ;
#9 = ADVANCED_FACE ( 'NONE', ( #94 ), #167, .T. ) ;
#10 = CC_DESIGN_SECURITY_CLASSIFICATION ( #106, ( #168 ) ) ;
#11 =( LENGTH_UNIT ( ) NAMED_UNIT ( * ) SI_UNIT ( .MILLI., .METRE. ) );
#12 = ADVANCED_FACE ( 'NONE', ( #21 ), #67, .F. ) ;
#13 = DATE_AND_TIME ( #146, #135 ) ;
#14 = DESIGN_CONTEXT ( 'detailed design', #47, 'design' ) ;
#15 = SHAPE_DEFINITION_REPRESENTATION ( #4, #108 ) ;
#16 = AXIS2_PLACEMENT_3D ( 'NONE', #165, #80, #30 ) ;
#17 = EDGE_LOOP ( 'NONE', ( #50, #8, #154, #92 ) ) ;
#18 = CARTESIAN_POINT ( 'NONE',  ( 6.349999999999999600, 7.776507174585692200E-016, 3.174999999999999800 ) ) ;
#19 = FACE_OUTER_BOUND ( 'NONE', #158, .T. ) ;
#20 = CC_DESIGN_PERSON_AND_ORGANIZATION_ASSIGNMENT ( #90, #129, ( #168 ) ) ;
#21 = FACE_OUTER_BOUND ( 'NONE', #77, .T. ) ;
#22 = VERTEX_POINT ( 'NONE', #66 ) ;
#23 = CC_DESIGN_PERSON_AND_ORGANIZATION_ASSIGNMENT ( #57, #73, ( #39 ) ) ;
#24 = CARTESIAN_POINT ( 'NONE',  ( -6.349999999999999600, 0.0000000000000000000, 3.174999999999999800 ) ) ;
#25 = LINE ( 'NONE', #24, #143 ) ;
#26 = CALENDAR_DATE ( 2018, 18, 10 ) ;
#27 = PERSON_AND_ORGANIZATION_ROLE ( 'classification_officer' ) ;
#28 = APPROVAL_DATE_TIME ( #61, #1 ) ;
#29 = CC_DESIGN_APPROVAL ( #1, ( #168 ) ) ;
#30 = DIRECTION ( 'NONE',  ( -1.000000000000000000, 0.0000000000000000000, 0.0000000000000000000 ) ) ;
#31 = EDGE_LOOP ( 'NONE', ( #104, #55, #123, #2 ) ) ;
#32 = DIRECTION ( 'NONE',  ( -0.0000000000000000000, -0.0000000000000000000, -1.000000000000000000 ) ) ;
#33 = APPROVAL_DATE_TIME ( #79, #68 ) ;
#34 = PERSON_AND_ORGANIZATION ( #65, #148 ) ;
#35 = UNCERTAINTY_MEASURE_WITH_UNIT (LENGTH_MEASURE( 1.000000000000000100E-005 ), #11, 'distance_accuracy_value', 'NONE');
#36 = APPROVAL_STATUS ( 'not_yet_approved' ) ;
#37 = EDGE_CURVE ( 'NONE', #86, #119, #89, .T. ) ;
#38 = PERSON_AND_ORGANIZATION_ROLE ( 'creator' ) ;
#39 = PRODUCT ( 'Web Model 37688_39014', 'Web Model 37688_39014', '', ( #101 ) ) ;
#40 = PRODUCT_RELATED_PRODUCT_CATEGORY ( 'detail', '', ( #39 ) ) ;
#41 = COORDINATED_UNIVERSAL_TIME_OFFSET ( 5, 0, .BEHIND. ) ;
#42 = DIRECTION ( 'NONE',  ( 0.0000000000000000000, 0.0000000000000000000, 1.000000000000000000 ) ) ;
#43 = CARTESIAN_POINT ( 'NONE',  ( -6.349999999999999600, 0.0000000000000000000, 3.174999999999999800 ) ) ;
#44 = AXIS2_PLACEMENT_3D ( 'NONE', #150, #42, #162 ) ;
#45 = PERSON_AND_ORGANIZATION ( #65, #148 ) ;
#46 = MANIFOLD_SOLID_BREP ( 'Boss-Extrude1', #114 ) ;
#47 = APPLICATION_CONTEXT ( 'configuration controlled 3d designs of mechanical parts and assemblies' ) ;
#48 = APPROVAL_STATUS ( 'not_yet_approved' ) ;
#49 = EDGE_CURVE ( 'NONE', #22, #133, #166, .T. ) ;
#50 = ORIENTED_EDGE ( 'NONE', *, *, #140, .F. ) ;
#51 = VECTOR ( 'NONE', #58, 1000.000000000000000 ) ;
#52 = COORDINATED_UNIVERSAL_TIME_OFFSET ( 5, 0, .BEHIND. ) ;
#53 = AXIS2_PLACEMENT_3D ( 'NONE', #122, #125, #60 ) ;
#54 = LOCAL_TIME ( 15, 42, 51.00000000000000000, #70 ) ;
#55 = ORIENTED_EDGE ( 'NONE', *, *, #37, .F. ) ;
#56 = CARTESIAN_POINT ( 'NONE',  ( 0.0000000000000000000, 0.0000000000000000000, -3.174999999999999800 ) ) ;
#57 = PERSON_AND_ORGANIZATION ( #65, #148 ) ;
#58 = DIRECTION ( 'NONE',  ( -0.0000000000000000000, -0.0000000000000000000, -1.000000000000000000 ) ) ;
#59 = AXIS2_PLACEMENT_3D ( 'NONE', #56, #5, #151 ) ;
#60 = DIRECTION ( 'NONE',  ( 1.000000000000000000, 0.0000000000000000000, -0.0000000000000000000 ) ) ;
#61 = DATE_AND_TIME ( #26, #95 ) ;
#62 = CC_DESIGN_DATE_AND_TIME_ASSIGNMENT ( #134, #144, ( #106 ) ) ;
#63 = CARTESIAN_POINT ( 'NONE',  ( 0.0000000000000000000, 0.0000000000000000000, 0.0000000000000000000 ) ) ;
#64 = CYLINDRICAL_SURFACE ( 'NONE', #91, 6.349999999999999600 ) ;
#65 = PERSON ( 'UNSPECIFIED', 'UNSPECIFIED', 'UNSPECIFIED', ('UNSPECIFIED'), ('UNSPECIFIED'), ('UNSPECIFIED') ) ;
#66 = CARTESIAN_POINT ( 'NONE',  ( -6.349999999999999600, 0.0000000000000000000, -3.174999999999999800 ) ) ;
#67 = PLANE ( 'NONE',  #116 ) ;
#68 = APPROVAL ( #48, 'UNSPECIFIED' ) ;
#69 = CARTESIAN_POINT ( 'NONE',  ( 6.349999999999999600, 7.776507174585692200E-016, -3.174999999999999800 ) ) ;
#70 = COORDINATED_UNIVERSAL_TIME_OFFSET ( 5, 0, .BEHIND. ) ;
#71 =( NAMED_UNIT ( * ) PLANE_ANGLE_UNIT ( ) SI_UNIT ( $, .RADIAN. ) );
#72 = DIRECTION ( 'NONE',  ( 0.0000000000000000000, 0.0000000000000000000, 1.000000000000000000 ) ) ;
#73 = PERSON_AND_ORGANIZATION_ROLE ( 'design_owner' ) ;
#74 = PRODUCT_DEFINITION ( 'UNKNOWN', '', #168, #14 ) ;
#75 = DIRECTION ( 'NONE',  ( -1.000000000000000000, 0.0000000000000000000, 0.0000000000000000000 ) ) ;
#76 = CARTESIAN_POINT ( 'NONE',  ( 0.0000000000000000000, 0.0000000000000000000, -3.174999999999999800 ) ) ;
#77 = EDGE_LOOP ( 'NONE', ( #82, #98 ) ) ;
#78 = DIRECTION ( 'NONE',  ( 1.000000000000000000, 0.0000000000000000000, 0.0000000000000000000 ) ) ;
#79 = DATE_AND_TIME ( #131, #120 ) ;
#80 = DIRECTION ( 'NONE',  ( -0.0000000000000000000, -0.0000000000000000000, -1.000000000000000000 ) ) ;
#81 = DIRECTION ( 'NONE',  ( 1.000000000000000000, 0.0000000000000000000, 0.0000000000000000000 ) ) ;
#82 = ORIENTED_EDGE ( 'NONE', *, *, #49, .F. ) ;
#83 = ADVANCED_FACE ( 'NONE', ( #112 ), #64, .T. ) ;
#84 = APPROVAL_PERSON_ORGANIZATION ( #139, #68, #100 ) ;
#85 = PERSON_AND_ORGANIZATION ( #65, #148 ) ;
#86 = VERTEX_POINT ( 'NONE', #43 ) ;
#87 = AXIS2_PLACEMENT_3D ( 'NONE', #63, #72, #173 ) ;
#88 = APPROVAL_ROLE ( '' ) ;
#89 = CIRCLE ( 'NONE', #44, 6.349999999999999600 ) ;
#90 = PERSON_AND_ORGANIZATION ( #65, #148 ) ;
#91 = AXIS2_PLACEMENT_3D ( 'NONE', #105, #93, #75 ) ;
#92 = ORIENTED_EDGE ( 'NONE', *, *, #138, .F. ) ;
#93 = DIRECTION ( 'NONE',  ( -0.0000000000000000000, -0.0000000000000000000, -1.000000000000000000 ) ) ;
#94 = FACE_OUTER_BOUND ( 'NONE', #31, .T. ) ;
#95 = LOCAL_TIME ( 15, 42, 51.00000000000000000, #169 ) ;
#96 = CARTESIAN_POINT ( 'NONE',  ( 6.349999999999999600, 7.776507174585692200E-016, 3.174999999999999800 ) ) ;
#97 = DIRECTION ( 'NONE',  ( 0.0000000000000000000, 0.0000000000000000000, 1.000000000000000000 ) ) ;
#98 = ORIENTED_EDGE ( 'NONE', *, *, #111, .F. ) ;
#99 = AXIS2_PLACEMENT_3D ( 'NONE', #142, #97, #81 ) ;
#100 = APPROVAL_ROLE ( '' ) ;
#101 = MECHANICAL_CONTEXT ( 'NONE', #102, 'mechanical' ) ;
#102 = APPLICATION_CONTEXT ( 'configuration controlled 3d designs of mechanical parts and assemblies' ) ;
#103 = DATE_AND_TIME ( #3, #54 ) ;
#104 = ORIENTED_EDGE ( 'NONE', *, *, #124, .F. ) ;
#105 = CARTESIAN_POINT ( 'NONE',  ( 0.0000000000000000000, 0.0000000000000000000, 3.174999999999999800 ) ) ;
#106 = SECURITY_CLASSIFICATION ( '', '', #130 ) ;
#107 = APPROVAL ( #36, 'UNSPECIFIED' ) ;
#108 = ADVANCED_BREP_SHAPE_REPRESENTATION ( 'Web Model 37688_39014', ( #46, #87 ), #126 ) ;
#109 = LINE ( 'NONE', #96, #51 ) ;
#110 = CC_DESIGN_PERSON_AND_ORGANIZATION_ASSIGNMENT ( #163, #156, ( #168 ) ) ;
#111 = EDGE_CURVE ( 'NONE', #133, #22, #175, .T. ) ;
#112 = FACE_OUTER_BOUND ( 'NONE', #17, .T. ) ;
#113 = PERSON_AND_ORGANIZATION ( #65, #148 ) ;
#114 = CLOSED_SHELL ( 'NONE', ( #83, #9, #170, #12 ) ) ;
#115 = CIRCLE ( 'NONE', #99, 6.349999999999999600 ) ;
#116 = AXIS2_PLACEMENT_3D ( 'NONE', #76, #6, #136 ) ;
#117 = ORIENTED_EDGE ( 'NONE', *, *, #140, .T. ) ;
#118 = DIRECTION ( 'NONE',  ( 0.0000000000000000000, 0.0000000000000000000, 1.000000000000000000 ) ) ;
#119 = VERTEX_POINT ( 'NONE', #18 ) ;
#120 = LOCAL_TIME ( 15, 42, 51.00000000000000000, #160 ) ;
#121 = CALENDAR_DATE ( 2018, 18, 10 ) ;
#122 = CARTESIAN_POINT ( 'NONE',  ( 0.0000000000000000000, 0.0000000000000000000, 3.174999999999999800 ) ) ;
#123 = ORIENTED_EDGE ( 'NONE', *, *, #138, .T. ) ;
#124 = EDGE_CURVE ( 'NONE', #119, #133, #109, .T. ) ;
#125 = DIRECTION ( 'NONE',  ( 0.0000000000000000000, 0.0000000000000000000, 1.000000000000000000 ) ) ;
#126 =( GEOMETRIC_REPRESENTATION_CONTEXT ( 3 ) GLOBAL_UNCERTAINTY_ASSIGNED_CONTEXT ( ( #35 ) ) GLOBAL_UNIT_ASSIGNED_CONTEXT ( ( #11, #71, #157 ) ) REPRESENTATION_CONTEXT ( 'NONE', 'WORKASPACE' ) );
#127 = APPLICATION_PROTOCOL_DEFINITION ( 'international standard', 'config_control_design', 1994, #102 ) ;
#128 = APPROVAL_PERSON_ORGANIZATION ( #113, #107, #88 ) ;
#129 = PERSON_AND_ORGANIZATION_ROLE ( 'design_supplier' ) ;
#130 = SECURITY_CLASSIFICATION_LEVEL ( 'unclassified' ) ;
#131 = CALENDAR_DATE ( 2018, 18, 10 ) ;
#132 = CC_DESIGN_APPROVAL ( #107, ( #74 ) ) ;
#133 = VERTEX_POINT ( 'NONE', #69 ) ;
#134 = DATE_AND_TIME ( #121, #152 ) ;
#135 = LOCAL_TIME ( 15, 42, 51.00000000000000000, #41 ) ;
#136 = DIRECTION ( 'NONE',  ( 1.000000000000000000, 0.0000000000000000000, -0.0000000000000000000 ) ) ;
#137 = APPROVAL_PERSON_ORGANIZATION ( #34, #1, #145 ) ;
#138 = EDGE_CURVE ( 'NONE', #86, #22, #25, .T. ) ;
#139 = PERSON_AND_ORGANIZATION ( #65, #148 ) ;
#140 = EDGE_CURVE ( 'NONE', #119, #86, #115, .T. ) ;
#141 = CC_DESIGN_PERSON_AND_ORGANIZATION_ASSIGNMENT ( #45, #38, ( #74 ) ) ;
#142 = CARTESIAN_POINT ( 'NONE',  ( 0.0000000000000000000, 0.0000000000000000000, 3.174999999999999800 ) ) ;
#143 = VECTOR ( 'NONE', #32, 1000.000000000000000 ) ;
#144 = DATE_TIME_ROLE ( 'classification_date' ) ;
#145 = APPROVAL_ROLE ( '' ) ;
#146 = CALENDAR_DATE ( 2018, 18, 10 ) ;
#147 = ORIENTED_EDGE ( 'NONE', *, *, #37, .T. ) ;
#148 = ORGANIZATION ( 'UNSPECIFIED', 'UNSPECIFIED', '' ) ;
#149 = CC_DESIGN_DATE_AND_TIME_ASSIGNMENT ( #103, #171, ( #74 ) ) ;
#150 = CARTESIAN_POINT ( 'NONE',  ( 0.0000000000000000000, 0.0000000000000000000, 3.174999999999999800 ) ) ;
#151 = DIRECTION ( 'NONE',  ( 1.000000000000000000, 0.0000000000000000000, 0.0000000000000000000 ) ) ;
#152 = LOCAL_TIME ( 15, 42, 51.00000000000000000, #52 ) ;
#153 = AXIS2_PLACEMENT_3D ( 'NONE', #164, #118, #78 ) ;
#154 = ORIENTED_EDGE ( 'NONE', *, *, #111, .T. ) ;
#155 = APPLICATION_PROTOCOL_DEFINITION ( 'international standard', 'config_control_design', 1994, #47 ) ;
#156 = PERSON_AND_ORGANIZATION_ROLE ( 'creator' ) ;
#157 =( NAMED_UNIT ( * ) SI_UNIT ( $, .STERADIAN. ) SOLID_ANGLE_UNIT ( ) );
#158 = EDGE_LOOP ( 'NONE', ( #147, #117 ) ) ;
#159 = APPROVAL_DATE_TIME ( #13, #107 ) ;
#160 = COORDINATED_UNIVERSAL_TIME_OFFSET ( 5, 0, .BEHIND. ) ;
#161 = CC_DESIGN_APPROVAL ( #68, ( #106 ) ) ;
#162 = DIRECTION ( 'NONE',  ( 1.000000000000000000, 0.0000000000000000000, 0.0000000000000000000 ) ) ;
#163 = PERSON_AND_ORGANIZATION ( #65, #148 ) ;
#164 = CARTESIAN_POINT ( 'NONE',  ( 0.0000000000000000000, 0.0000000000000000000, -3.174999999999999800 ) ) ;
#165 = CARTESIAN_POINT ( 'NONE',  ( 0.0000000000000000000, 0.0000000000000000000, 3.174999999999999800 ) ) ;
#166 = CIRCLE ( 'NONE', #153, 6.349999999999999600 ) ;
#167 = CYLINDRICAL_SURFACE ( 'NONE', #16, 6.349999999999999600 ) ;
#168 = PRODUCT_DEFINITION_FORMATION_WITH_SPECIFIED_SOURCE ( 'ANY', '', #39, .NOT_KNOWN. ) ;
#169 = COORDINATED_UNIVERSAL_TIME_OFFSET ( 5, 0, .BEHIND. ) ;
#170 = ADVANCED_FACE ( 'NONE', ( #19 ), #7, .T. ) ;
#171 = DATE_TIME_ROLE ( 'creation_date' ) ;
#172 = APPROVAL_STATUS ( 'not_yet_approved' ) ;
#173 = DIRECTION ( 'NONE',  ( 1.000000000000000000, 0.0000000000000000000, 0.0000000000000000000 ) ) ;
#174 = CC_DESIGN_PERSON_AND_ORGANIZATION_ASSIGNMENT ( #85, #27, ( #106 ) ) ;
#175 = CIRCLE ( 'NONE', #59, 6.349999999999999600 ) ;
ENDSEC;
END-ISO-10303-21;
