ISO-10303-21;
HEADER;
FILE_DESCRIPTION (( 'STEP AP203' ),
    '1' );
FILE_NAME ('Web Model 84483.STEP',
    '2017-02-01T15:49:44',
    ( '' ),
    ( '' ),
    'SwSTEP 2.0',
    'SolidWorks 2016',
    '' );
FILE_SCHEMA (( 'CONFIG_CONTROL_DESIGN' ));
ENDSEC;

DATA;
#1 = DATE_AND_TIME ( #146, #109 ) ;
#2 = CALENDAR_DATE ( 2017, 1, 2 ) ;
#3 = CARTESIAN_POINT ( 'NONE',  ( 0.0000000000000000000, 0.0000000000000000000, 1.000000000000000000 ) ) ;
#4 = VERTEX_POINT ( 'NONE', #87 ) ;
#5 = DIRECTION ( 'NONE',  ( -0.0000000000000000000, -0.0000000000000000000, -1.000000000000000000 ) ) ;
#6 = ORIENTED_EDGE ( 'NONE', *, *, #141, .T. ) ;
#7 = COORDINATED_UNIVERSAL_TIME_OFFSET ( 5, 0, .BEHIND. ) ;
#8 = APPROVAL_STATUS ( 'not_yet_approved' ) ;
#9 = UNCERTAINTY_MEASURE_WITH_UNIT (LENGTH_MEASURE( 1.000000000000000100E-005 ), #20, 'distance_accuracy_value', 'NONE');
#10 = DIRECTION ( 'NONE',  ( 0.0000000000000000000, 0.0000000000000000000, 1.000000000000000000 ) ) ;
#11 = APPROVAL_PERSON_ORGANIZATION ( #92, #51, #93 ) ;
#12 = ORIENTED_EDGE ( 'NONE', *, *, #150, .T. ) ;
#13 = DATE_AND_TIME ( #173, #145 ) ;
#14 = APPROVAL ( #158, 'UNSPECIFIED' ) ;
#15 =( NAMED_UNIT ( * ) SI_UNIT ( $, .STERADIAN. ) SOLID_ANGLE_UNIT ( ) );
#16 = DIRECTION ( 'NONE',  ( -1.000000000000000000, 0.0000000000000000000, 0.0000000000000000000 ) ) ;
#17 = DIRECTION ( 'NONE',  ( 0.0000000000000000000, 0.0000000000000000000, 1.000000000000000000 ) ) ;
#18 = ORIENTED_EDGE ( 'NONE', *, *, #106, .F. ) ;
#19 = EDGE_CURVE ( 'NONE', #110, #4, #155, .T. ) ;
#20 =( LENGTH_UNIT ( ) NAMED_UNIT ( * ) SI_UNIT ( .MILLI., .METRE. ) );
#21 = ORIENTED_EDGE ( 'NONE', *, *, #19, .T. ) ;
#22 = CIRCLE ( 'NONE', #100, 5.000000000000000900 ) ;
#23 = LINE ( 'NONE', #139, #101 ) ;
#24 = DIRECTION ( 'NONE',  ( 0.0000000000000000000, 0.0000000000000000000, 1.000000000000000000 ) ) ;
#25 = EDGE_LOOP ( 'NONE', ( #43, #6, #45, #156 ) ) ;
#26 = DESIGN_CONTEXT ( 'detailed design', #115, 'design' ) ;
#27 = CC_DESIGN_PERSON_AND_ORGANIZATION_ASSIGNMENT ( #31, #107, ( #32 ) ) ;
#28 = DIRECTION ( 'NONE',  ( 0.0000000000000000000, 0.0000000000000000000, 1.000000000000000000 ) ) ;
#29 = ORGANIZATION ( 'UNSPECIFIED', 'UNSPECIFIED', '' ) ;
#30 = PERSON_AND_ORGANIZATION_ROLE ( 'creator' ) ;
#31 = PERSON_AND_ORGANIZATION ( #76, #29 ) ;
#32 = PRODUCT_DEFINITION ( 'UNKNOWN', '', #144, #26 ) ;
#33 = VERTEX_POINT ( 'NONE', #85 ) ;
#34 = PERSON_AND_ORGANIZATION ( #76, #29 ) ;
#35 = CC_DESIGN_DATE_AND_TIME_ASSIGNMENT ( #53, #127, ( #140 ) ) ;
#36 = CALENDAR_DATE ( 2017, 1, 2 ) ;
#37 = CC_DESIGN_SECURITY_CLASSIFICATION ( #140, ( #144 ) ) ;
#38 = ORIENTED_EDGE ( 'NONE', *, *, #91, .T. ) ;
#39 = ADVANCED_BREP_SHAPE_REPRESENTATION ( 'Web Model 84483', ( #138, #112 ), #128 ) ;
#40 = SHAPE_DEFINITION_REPRESENTATION ( #135, #39 ) ;
#41 = CYLINDRICAL_SURFACE ( 'NONE', #102, 5.000000000000000900 ) ;
#42 = DIRECTION ( 'NONE',  ( 1.000000000000000000, 0.0000000000000000000, 0.0000000000000000000 ) ) ;
#43 = ORIENTED_EDGE ( 'NONE', *, *, #91, .F. ) ;
#44 = FACE_OUTER_BOUND ( 'NONE', #72, .T. ) ;
#45 = ORIENTED_EDGE ( 'NONE', *, *, #106, .T. ) ;
#46 = APPROVAL_DATE_TIME ( #13, #14 ) ;
#47 = CC_DESIGN_PERSON_AND_ORGANIZATION_ASSIGNMENT ( #60, #82, ( #129 ) ) ;
#48 = APPLICATION_PROTOCOL_DEFINITION ( 'international standard', 'config_control_design', 1994, #115 ) ;
#49 = FACE_OUTER_BOUND ( 'NONE', #62, .T. ) ;
#50 = AXIS2_PLACEMENT_3D ( 'NONE', #165, #152, #94 ) ;
#51 = APPROVAL ( #132, 'UNSPECIFIED' ) ;
#52 = DIRECTION ( 'NONE',  ( 1.000000000000000000, 0.0000000000000000000, -0.0000000000000000000 ) ) ;
#53 = DATE_AND_TIME ( #59, #133 ) ;
#54 = DIRECTION ( 'NONE',  ( -0.0000000000000000000, -0.0000000000000000000, -1.000000000000000000 ) ) ;
#55 = CC_DESIGN_APPROVAL ( #51, ( #32 ) ) ;
#56 = ORIENTED_EDGE ( 'NONE', *, *, #150, .F. ) ;
#57 = DIRECTION ( 'NONE',  ( 1.000000000000000000, 0.0000000000000000000, -0.0000000000000000000 ) ) ;
#58 = PERSON_AND_ORGANIZATION_ROLE ( 'classification_officer' ) ;
#59 = CALENDAR_DATE ( 2017, 1, 2 ) ;
#60 = PERSON_AND_ORGANIZATION ( #76, #29 ) ;
#61 = PERSON_AND_ORGANIZATION ( #76, #29 ) ;
#62 = EDGE_LOOP ( 'NONE', ( #12, #38 ) ) ;
#63 = CARTESIAN_POINT ( 'NONE',  ( -5.000000000000000900, 0.0000000000000000000, 1.000000000000000000 ) ) ;
#64 = COORDINATED_UNIVERSAL_TIME_OFFSET ( 5, 0, .BEHIND. ) ;
#65 = LOCAL_TIME ( 10, 49, 44.00000000000000000, #148 ) ;
#66 = PLANE ( 'NONE',  #149 ) ;
#67 = DIRECTION ( 'NONE',  ( 0.0000000000000000000, 0.0000000000000000000, 1.000000000000000000 ) ) ;
#68 = CARTESIAN_POINT ( 'NONE',  ( 0.0000000000000000000, 0.0000000000000000000, 1.000000000000000000 ) ) ;
#69 = DIRECTION ( 'NONE',  ( -1.000000000000000000, 0.0000000000000000000, 0.0000000000000000000 ) ) ;
#70 = CC_DESIGN_PERSON_AND_ORGANIZATION_ASSIGNMENT ( #166, #171, ( #144 ) ) ;
#71 = DATE_TIME_ROLE ( 'creation_date' ) ;
#72 = EDGE_LOOP ( 'NONE', ( #160, #56, #162, #21 ) ) ;
#73 = EDGE_CURVE ( 'NONE', #130, #110, #172, .T. ) ;
#74 = DATE_AND_TIME ( #36, #143 ) ;
#75 = COORDINATED_UNIVERSAL_TIME_OFFSET ( 5, 0, .BEHIND. ) ;
#76 = PERSON ( 'UNSPECIFIED', 'UNSPECIFIED', 'UNSPECIFIED', ('UNSPECIFIED'), ('UNSPECIFIED'), ('UNSPECIFIED') ) ;
#77 = APPROVAL_DATE_TIME ( #151, #51 ) ;
#78 = APPROVAL_PERSON_ORGANIZATION ( #34, #131, #157 ) ;
#79 = DIRECTION ( 'NONE',  ( 1.000000000000000000, 0.0000000000000000000, 0.0000000000000000000 ) ) ;
#80 = FACE_OUTER_BOUND ( 'NONE', #25, .T. ) ;
#81 = AXIS2_PLACEMENT_3D ( 'NONE', #3, #17, #83 ) ;
#82 = PERSON_AND_ORGANIZATION_ROLE ( 'design_owner' ) ;
#83 = DIRECTION ( 'NONE',  ( 1.000000000000000000, 0.0000000000000000000, 0.0000000000000000000 ) ) ;
#84 = FACE_OUTER_BOUND ( 'NONE', #86, .T. ) ;
#85 = CARTESIAN_POINT ( 'NONE',  ( 5.000000000000000900, 6.123233995736767300E-016, 1.000000000000000000 ) ) ;
#86 = EDGE_LOOP ( 'NONE', ( #121, #18 ) ) ;
#87 = CARTESIAN_POINT ( 'NONE',  ( 5.000000000000000900, 6.123233995736767300E-016, 0.0000000000000000000 ) ) ;
#88 = ADVANCED_FACE ( 'NONE', ( #84 ), #167, .F. ) ;
#89 = SECURITY_CLASSIFICATION_LEVEL ( 'unclassified' ) ;
#90 = CLOSED_SHELL ( 'NONE', ( #98, #159, #124, #88 ) ) ;
#91 = EDGE_CURVE ( 'NONE', #33, #130, #113, .T. ) ;
#92 = PERSON_AND_ORGANIZATION ( #76, #29 ) ;
#93 = APPROVAL_ROLE ( '' ) ;
#94 = DIRECTION ( 'NONE',  ( 1.000000000000000000, 0.0000000000000000000, 0.0000000000000000000 ) ) ;
#95 = CYLINDRICAL_SURFACE ( 'NONE', #116, 5.000000000000000900 ) ;
#96 = AXIS2_PLACEMENT_3D ( 'NONE', #104, #137, #52 ) ;
#97 = CARTESIAN_POINT ( 'NONE',  ( 0.0000000000000000000, 0.0000000000000000000, 1.000000000000000000 ) ) ;
#98 = ADVANCED_FACE ( 'NONE', ( #80 ), #41, .T. ) ;
#99 = MECHANICAL_CONTEXT ( 'NONE', #134, 'mechanical' ) ;
#100 = AXIS2_PLACEMENT_3D ( 'NONE', #125, #10, #42 ) ;
#101 = VECTOR ( 'NONE', #5, 1000.000000000000000 ) ;
#102 = AXIS2_PLACEMENT_3D ( 'NONE', #105, #54, #16 ) ;
#103 = PERSON_AND_ORGANIZATION ( #76, #29 ) ;
#104 = CARTESIAN_POINT ( 'NONE',  ( 0.0000000000000000000, 0.0000000000000000000, 0.0000000000000000000 ) ) ;
#105 = CARTESIAN_POINT ( 'NONE',  ( 0.0000000000000000000, 0.0000000000000000000, 1.000000000000000000 ) ) ;
#106 = EDGE_CURVE ( 'NONE', #4, #110, #164, .T. ) ;
#107 = PERSON_AND_ORGANIZATION_ROLE ( 'creator' ) ;
#108 = APPROVAL_DATE_TIME ( #1, #131 ) ;
#109 = LOCAL_TIME ( 10, 49, 44.00000000000000000, #7 ) ;
#110 = VERTEX_POINT ( 'NONE', #163 ) ;
#111 = COORDINATED_UNIVERSAL_TIME_OFFSET ( 5, 0, .BEHIND. ) ;
#112 = AXIS2_PLACEMENT_3D ( 'NONE', #117, #24, #79 ) ;
#113 = CIRCLE ( 'NONE', #81, 5.000000000000000900 ) ;
#114 = CC_DESIGN_APPROVAL ( #131, ( #144 ) ) ;
#115 = APPLICATION_CONTEXT ( 'configuration controlled 3d designs of mechanical parts and assemblies' ) ;
#116 = AXIS2_PLACEMENT_3D ( 'NONE', #68, #126, #69 ) ;
#117 = CARTESIAN_POINT ( 'NONE',  ( 0.0000000000000000000, 0.0000000000000000000, 0.0000000000000000000 ) ) ;
#118 = APPLICATION_PROTOCOL_DEFINITION ( 'international standard', 'config_control_design', 1994, #134 ) ;
#119 = VECTOR ( 'NONE', #120, 1000.000000000000000 ) ;
#120 = DIRECTION ( 'NONE',  ( -0.0000000000000000000, -0.0000000000000000000, -1.000000000000000000 ) ) ;
#121 = ORIENTED_EDGE ( 'NONE', *, *, #19, .F. ) ;
#122 = CC_DESIGN_DATE_AND_TIME_ASSIGNMENT ( #74, #71, ( #32 ) ) ;
#123 = CARTESIAN_POINT ( 'NONE',  ( 0.0000000000000000000, 0.0000000000000000000, 0.0000000000000000000 ) ) ;
#124 = ADVANCED_FACE ( 'NONE', ( #49 ), #66, .T. ) ;
#125 = CARTESIAN_POINT ( 'NONE',  ( 0.0000000000000000000, 0.0000000000000000000, 1.000000000000000000 ) ) ;
#126 = DIRECTION ( 'NONE',  ( -0.0000000000000000000, -0.0000000000000000000, -1.000000000000000000 ) ) ;
#127 = DATE_TIME_ROLE ( 'classification_date' ) ;
#128 =( GEOMETRIC_REPRESENTATION_CONTEXT ( 3 ) GLOBAL_UNCERTAINTY_ASSIGNED_CONTEXT ( ( #9 ) ) GLOBAL_UNIT_ASSIGNED_CONTEXT ( ( #20, #174, #15 ) ) REPRESENTATION_CONTEXT ( 'NONE', 'WORKASPACE' ) );
#129 = PRODUCT ( 'Web Model 84483', 'Web Model 84483', '', ( #99 ) ) ;
#130 = VERTEX_POINT ( 'NONE', #63 ) ;
#131 = APPROVAL ( #8, 'UNSPECIFIED' ) ;
#132 = APPROVAL_STATUS ( 'not_yet_approved' ) ;
#133 = LOCAL_TIME ( 10, 49, 44.00000000000000000, #64 ) ;
#134 = APPLICATION_CONTEXT ( 'configuration controlled 3d designs of mechanical parts and assemblies' ) ;
#135 = PRODUCT_DEFINITION_SHAPE ( 'NONE', 'NONE',  #32 ) ;
#136 = PRODUCT_RELATED_PRODUCT_CATEGORY ( 'detail', '', ( #129 ) ) ;
#137 = DIRECTION ( 'NONE',  ( 0.0000000000000000000, 0.0000000000000000000, 1.000000000000000000 ) ) ;
#138 = MANIFOLD_SOLID_BREP ( 'Extrude1', #90 ) ;
#139 = CARTESIAN_POINT ( 'NONE',  ( 5.000000000000000900, 6.123233995736767300E-016, 1.000000000000000000 ) ) ;
#140 = SECURITY_CLASSIFICATION ( '', '', #89 ) ;
#141 = EDGE_CURVE ( 'NONE', #33, #4, #23, .T. ) ;
#142 = APPROVAL_ROLE ( '' ) ;
#143 = LOCAL_TIME ( 10, 49, 44.00000000000000000, #111 ) ;
#144 = PRODUCT_DEFINITION_FORMATION_WITH_SPECIFIED_SOURCE ( 'ANY', '', #129, .NOT_KNOWN. ) ;
#145 = LOCAL_TIME ( 10, 49, 44.00000000000000000, #75 ) ;
#146 = CALENDAR_DATE ( 2017, 1, 2 ) ;
#147 = CC_DESIGN_PERSON_AND_ORGANIZATION_ASSIGNMENT ( #61, #30, ( #144 ) ) ;
#148 = COORDINATED_UNIVERSAL_TIME_OFFSET ( 5, 0, .BEHIND. ) ;
#149 = AXIS2_PLACEMENT_3D ( 'NONE', #97, #67, #57 ) ;
#150 = EDGE_CURVE ( 'NONE', #130, #33, #22, .T. ) ;
#151 = DATE_AND_TIME ( #2, #65 ) ;
#152 = DIRECTION ( 'NONE',  ( 0.0000000000000000000, 0.0000000000000000000, 1.000000000000000000 ) ) ;
#153 = APPROVAL_PERSON_ORGANIZATION ( #161, #14, #142 ) ;
#154 = AXIS2_PLACEMENT_3D ( 'NONE', #123, #28, #170 ) ;
#155 = CIRCLE ( 'NONE', #50, 5.000000000000000900 ) ;
#156 = ORIENTED_EDGE ( 'NONE', *, *, #73, .F. ) ;
#157 = APPROVAL_ROLE ( '' ) ;
#158 = APPROVAL_STATUS ( 'not_yet_approved' ) ;
#159 = ADVANCED_FACE ( 'NONE', ( #44 ), #95, .T. ) ;
#160 = ORIENTED_EDGE ( 'NONE', *, *, #141, .F. ) ;
#161 = PERSON_AND_ORGANIZATION ( #76, #29 ) ;
#162 = ORIENTED_EDGE ( 'NONE', *, *, #73, .T. ) ;
#163 = CARTESIAN_POINT ( 'NONE',  ( -5.000000000000000900, 0.0000000000000000000, 0.0000000000000000000 ) ) ;
#164 = CIRCLE ( 'NONE', #154, 5.000000000000000900 ) ;
#165 = CARTESIAN_POINT ( 'NONE',  ( 0.0000000000000000000, 0.0000000000000000000, 0.0000000000000000000 ) ) ;
#166 = PERSON_AND_ORGANIZATION ( #76, #29 ) ;
#167 = PLANE ( 'NONE',  #96 ) ;
#168 = CARTESIAN_POINT ( 'NONE',  ( -5.000000000000000900, 0.0000000000000000000, 1.000000000000000000 ) ) ;
#169 = CC_DESIGN_PERSON_AND_ORGANIZATION_ASSIGNMENT ( #103, #58, ( #140 ) ) ;
#170 = DIRECTION ( 'NONE',  ( 1.000000000000000000, 0.0000000000000000000, 0.0000000000000000000 ) ) ;
#171 = PERSON_AND_ORGANIZATION_ROLE ( 'design_supplier' ) ;
#172 = LINE ( 'NONE', #168, #119 ) ;
#173 = CALENDAR_DATE ( 2017, 1, 2 ) ;
#174 =( NAMED_UNIT ( * ) PLANE_ANGLE_UNIT ( ) SI_UNIT ( $, .RADIAN. ) );
#175 = CC_DESIGN_APPROVAL ( #14, ( #140 ) ) ;
ENDSEC;
END-ISO-10303-21;
