ISO-10303-21;
HEADER;
FILE_DESCRIPTION (( 'STEP AP203' ),
    '1' );
FILE_NAME ('Web Model 47022.STEP',
    '2017-01-31T15:20:08',
    ( '' ),
    ( '' ),
    'SwSTEP 2.0',
    'SolidWorks 2016',
    '' );
FILE_SCHEMA (( 'CONFIG_CONTROL_DESIGN' ));
ENDSEC;

DATA;
#1 = ORIENTED_EDGE ( 'NONE', *, *, #210, .T. ) ;
#2 = LOCAL_TIME ( 10, 20, 8.000000000000000000, #117 ) ;
#3 = VERTEX_POINT ( 'NONE', #30 ) ;
#4 = ORIENTED_EDGE ( 'NONE', *, *, #55, .T. ) ;
#5 = PLANE ( 'NONE',  #70 ) ;
#6 = CC_DESIGN_PERSON_AND_ORGANIZATION_ASSIGNMENT ( #75, #106, ( #99 ) ) ;
#7 = EDGE_LOOP ( 'NONE', ( #192, #193, #112, #4 ) ) ;
#8 = DIRECTION ( 'NONE',  ( -0.0000000000000000000, -1.000000000000000000, -0.0000000000000000000 ) ) ;
#9 = VERTEX_POINT ( 'NONE', #197 ) ;
#10 = COORDINATED_UNIVERSAL_TIME_OFFSET ( 5, 0, .BEHIND. ) ;
#11 = CARTESIAN_POINT ( 'NONE',  ( 17.50000000000000000, 0.0000000000000000000, 0.0000000000000000000 ) ) ;
#12 = LINE ( 'NONE', #198, #89 ) ;
#13 = PERSON_AND_ORGANIZATION_ROLE ( 'design_supplier' ) ;
#14 = CC_DESIGN_APPROVAL ( #211, ( #160 ) ) ;
#15 = CARTESIAN_POINT ( 'NONE',  ( 17.50000000000000000, 12.50000000000000000, 3.000000000000000000 ) ) ;
#16 = CARTESIAN_POINT ( 'NONE',  ( 17.50000000000000000, 0.0000000000000000000, 0.0000000000000000000 ) ) ;
#17 = DIRECTION ( 'NONE',  ( 1.000000000000000000, 1.982541115402065100E-016, 0.0000000000000000000 ) ) ;
#18 = SHAPE_DEFINITION_REPRESENTATION ( #122, #146 ) ;
#19 = EDGE_LOOP ( 'NONE', ( #142, #52, #96, #1 ) ) ;
#20 = LINE ( 'NONE', #28, #208 ) ;
#21 = FACE_OUTER_BOUND ( 'NONE', #73, .T. ) ;
#22 = VERTEX_POINT ( 'NONE', #132 ) ;
#23 = DIRECTION ( 'NONE',  ( -0.0000000000000000000, -0.0000000000000000000, -1.000000000000000000 ) ) ;
#24 = DATE_AND_TIME ( #134, #2 ) ;
#25 = VECTOR ( 'NONE', #113, 1000.000000000000000 ) ;
#26 = APPROVAL_DATE_TIME ( #53, #202 ) ;
#27 = CARTESIAN_POINT ( 'NONE',  ( 0.0000000000000000000, 0.0000000000000000000, 0.0000000000000000000 ) ) ;
#28 = CARTESIAN_POINT ( 'NONE',  ( 0.0000000000000000000, 0.0000000000000000000, 3.000000000000000000 ) ) ;
#29 = APPROVAL_PERSON_ORGANIZATION ( #209, #211, #236 ) ;
#30 = CARTESIAN_POINT ( 'NONE',  ( 0.0000000000000000000, 0.0000000000000000000, 3.000000000000000000 ) ) ;
#31 = CARTESIAN_POINT ( 'NONE',  ( 0.0000000000000000000, 12.49999999999999600, 3.000000000000000000 ) ) ;
#32 = LINE ( 'NONE', #149, #225 ) ;
#33 = PRODUCT_RELATED_PRODUCT_CATEGORY ( 'detail', '', ( #188 ) ) ;
#34 = ADVANCED_FACE ( 'NONE', ( #205 ), #232, .F. ) ;
#35 = CARTESIAN_POINT ( 'NONE',  ( 0.0000000000000000000, 12.49999999999999600, 3.000000000000000000 ) ) ;
#36 = CARTESIAN_POINT ( 'NONE',  ( 0.0000000000000000000, 0.0000000000000000000, 0.0000000000000000000 ) ) ;
#37 = EDGE_CURVE ( 'NONE', #159, #68, #32, .T. ) ;
#38 = PERSON_AND_ORGANIZATION ( #65, #51 ) ;
#39 = APPROVAL_ROLE ( '' ) ;
#40 = DIRECTION ( 'NONE',  ( -0.0000000000000000000, -1.000000000000000000, -0.0000000000000000000 ) ) ;
#41 = ORIENTED_EDGE ( 'NONE', *, *, #111, .F. ) ;
#42 = VECTOR ( 'NONE', #83, 1000.000000000000000 ) ;
#43 = EDGE_CURVE ( 'NONE', #59, #159, #216, .T. ) ;
#44 = DESIGN_CONTEXT ( 'detailed design', #184, 'design' ) ;
#45 = LINE ( 'NONE', #54, #25 ) ;
#46 = LOCAL_TIME ( 10, 20, 8.000000000000000000, #101 ) ;
#47 = ORIENTED_EDGE ( 'NONE', *, *, #187, .F. ) ;
#48 = ORIENTED_EDGE ( 'NONE', *, *, #115, .F. ) ;
#49 = CALENDAR_DATE ( 2017, 31, 1 ) ;
#50 = ORIENTED_EDGE ( 'NONE', *, *, #187, .T. ) ;
#51 = ORGANIZATION ( 'UNSPECIFIED', 'UNSPECIFIED', '' ) ;
#52 = ORIENTED_EDGE ( 'NONE', *, *, #154, .F. ) ;
#53 = DATE_AND_TIME ( #49, #46 ) ;
#54 = CARTESIAN_POINT ( 'NONE',  ( 0.0000000000000000000, 12.49999999999999600, 0.0000000000000000000 ) ) ;
#55 = EDGE_CURVE ( 'NONE', #3, #68, #12, .T. ) ;
#56 = VECTOR ( 'NONE', #40, 1000.000000000000000 ) ;
#57 = DIRECTION ( 'NONE',  ( 0.0000000000000000000, 0.0000000000000000000, 1.000000000000000000 ) ) ;
#58 = AXIS2_PLACEMENT_3D ( 'NONE', #114, #233, #133 ) ;
#59 = VERTEX_POINT ( 'NONE', #94 ) ;
#60 = CARTESIAN_POINT ( 'NONE',  ( 0.0000000000000000000, 12.49999999999999600, 0.0000000000000000000 ) ) ;
#61 = APPROVAL_STATUS ( 'not_yet_approved' ) ;
#62 = APPROVAL_ROLE ( '' ) ;
#63 = DIRECTION ( 'NONE',  ( 0.0000000000000000000, 0.0000000000000000000, -1.000000000000000000 ) ) ;
#64 = ORIENTED_EDGE ( 'NONE', *, *, #43, .T. ) ;
#65 = PERSON ( 'UNSPECIFIED', 'UNSPECIFIED', 'UNSPECIFIED', ('UNSPECIFIED'), ('UNSPECIFIED'), ('UNSPECIFIED') ) ;
#66 = CC_DESIGN_DATE_AND_TIME_ASSIGNMENT ( #200, #139, ( #99 ) ) ;
#67 = ORIENTED_EDGE ( 'NONE', *, *, #37, .T. ) ;
#68 = VERTEX_POINT ( 'NONE', #27 ) ;
#69 = VECTOR ( 'NONE', #140, 1000.000000000000000 ) ;
#70 = AXIS2_PLACEMENT_3D ( 'NONE', #116, #231, #181 ) ;
#71 = EDGE_CURVE ( 'NONE', #9, #129, #80, .T. ) ;
#72 = DATE_AND_TIME ( #162, #143 ) ;
#73 = EDGE_LOOP ( 'NONE', ( #185, #41, #78, #105 ) ) ;
#74 = FACE_OUTER_BOUND ( 'NONE', #170, .T. ) ;
#75 = PERSON_AND_ORGANIZATION ( #65, #51 ) ;
#76 = CARTESIAN_POINT ( 'NONE',  ( 17.50000000000000000, 0.0000000000000000000, 3.000000000000000000 ) ) ;
#77 = ORIENTED_EDGE ( 'NONE', *, *, #55, .F. ) ;
#78 = ORIENTED_EDGE ( 'NONE', *, *, #158, .F. ) ;
#79 = DIRECTION ( 'NONE',  ( 0.0000000000000000000, 0.0000000000000000000, 1.000000000000000000 ) ) ;
#80 = LINE ( 'NONE', #145, #171 ) ;
#81 = LINE ( 'NONE', #15, #69 ) ;
#82 = AXIS2_PLACEMENT_3D ( 'NONE', #203, #165, #63 ) ;
#83 = DIRECTION ( 'NONE',  ( 0.0000000000000000000, 1.000000000000000000, 0.0000000000000000000 ) ) ;
#84 = APPLICATION_PROTOCOL_DEFINITION ( 'international standard', 'config_control_design', 1994, #184 ) ;
#85 = FACE_OUTER_BOUND ( 'NONE', #174, .T. ) ;
#86 = CC_DESIGN_APPROVAL ( #206, ( #91 ) ) ;
#87 = EDGE_CURVE ( 'NONE', #3, #9, #20, .T. ) ;
#88 = PERSON_AND_ORGANIZATION ( #65, #51 ) ;
#89 = VECTOR ( 'NONE', #212, 1000.000000000000000 ) ;
#90 = LINE ( 'NONE', #11, #42 ) ;
#91 = PRODUCT_DEFINITION_FORMATION_WITH_SPECIFIED_SOURCE ( 'ANY', '', #188, .NOT_KNOWN. ) ;
#92 = EDGE_LOOP ( 'NONE', ( #126, #128, #48, #163 ) ) ;
#93 = FACE_OUTER_BOUND ( 'NONE', #92, .T. ) ;
#94 = CARTESIAN_POINT ( 'NONE',  ( 0.0000000000000000000, 12.49999999999999600, 3.000000000000000000 ) ) ;
#95 = EDGE_CURVE ( 'NONE', #68, #189, #226, .T. ) ;
#96 = ORIENTED_EDGE ( 'NONE', *, *, #71, .F. ) ;
#97 = DIRECTION ( 'NONE',  ( 1.000000000000000000, 0.0000000000000000000, 0.0000000000000000000 ) ) ;
#98 = VECTOR ( 'NONE', #215, 1000.000000000000000 ) ;
#99 = SECURITY_CLASSIFICATION ( '', '', #201 ) ;
#100 = APPROVAL_DATE_TIME ( #127, #206 ) ;
#101 = COORDINATED_UNIVERSAL_TIME_OFFSET ( 5, 0, .BEHIND. ) ;
#102 = DIRECTION ( 'NONE',  ( 1.000000000000000000, 0.0000000000000000000, 0.0000000000000000000 ) ) ;
#103 = APPLICATION_CONTEXT ( 'configuration controlled 3d designs of mechanical parts and assemblies' ) ;
#104 = CARTESIAN_POINT ( 'NONE',  ( 0.0000000000000000000, 0.0000000000000000000, 3.000000000000000000 ) ) ;
#105 = ORIENTED_EDGE ( 'NONE', *, *, #95, .F. ) ;
#106 = PERSON_AND_ORGANIZATION_ROLE ( 'classification_officer' ) ;
#107 = LINE ( 'NONE', #104, #56 ) ;
#108 = PERSON_AND_ORGANIZATION ( #65, #51 ) ;
#109 = CLOSED_SHELL ( 'NONE', ( #119, #213, #34, #118, #235, #164 ) ) ;
#110 = APPROVAL_PERSON_ORGANIZATION ( #88, #206, #39 ) ;
#111 = EDGE_CURVE ( 'NONE', #22, #159, #45, .T. ) ;
#112 = ORIENTED_EDGE ( 'NONE', *, *, #87, .F. ) ;
#113 = DIRECTION ( 'NONE',  ( -1.000000000000000000, -1.982541115402065100E-016, -0.0000000000000000000 ) ) ;
#114 = CARTESIAN_POINT ( 'NONE',  ( 0.0000000000000000000, 0.0000000000000000000, 3.000000000000000000 ) ) ;
#115 = EDGE_CURVE ( 'NONE', #129, #59, #178, .T. ) ;
#116 = CARTESIAN_POINT ( 'NONE',  ( 0.0000000000000000000, 0.0000000000000000000, 3.000000000000000000 ) ) ;
#117 = COORDINATED_UNIVERSAL_TIME_OFFSET ( 5, 0, .BEHIND. ) ;
#118 = ADVANCED_FACE ( 'NONE', ( #93 ), #237, .F. ) ;
#119 = ADVANCED_FACE ( 'NONE', ( #85 ), #169, .F. ) ;
#120 = MECHANICAL_CONTEXT ( 'NONE', #103, 'mechanical' ) ;
#121 = MANIFOLD_SOLID_BREP ( 'Extrude1', #109 ) ;
#122 = PRODUCT_DEFINITION_SHAPE ( 'NONE', 'NONE',  #160 ) ;
#123 = DIRECTION ( 'NONE',  ( 1.982541115402065100E-016, -1.000000000000000000, 0.0000000000000000000 ) ) ;
#124 = DIRECTION ( 'NONE',  ( -1.000000000000000000, -1.982541115402065100E-016, -0.0000000000000000000 ) ) ;
#125 = CC_DESIGN_SECURITY_CLASSIFICATION ( #99, ( #91 ) ) ;
#126 = ORIENTED_EDGE ( 'NONE', *, *, #111, .T. ) ;
#127 = DATE_AND_TIME ( #204, #168 ) ;
#128 = ORIENTED_EDGE ( 'NONE', *, *, #43, .F. ) ;
#129 = VERTEX_POINT ( 'NONE', #137 ) ;
#130 = ORIENTED_EDGE ( 'NONE', *, *, #115, .T. ) ;
#131 =( GEOMETRIC_REPRESENTATION_CONTEXT ( 3 ) GLOBAL_UNCERTAINTY_ASSIGNED_CONTEXT ( ( #191 ) ) GLOBAL_UNIT_ASSIGNED_CONTEXT ( ( #167, #228, #157 ) ) REPRESENTATION_CONTEXT ( 'NONE', 'WORKASPACE' ) );
#132 = CARTESIAN_POINT ( 'NONE',  ( 17.50000000000000000, 12.50000000000000000, 0.0000000000000000000 ) ) ;
#133 = DIRECTION ( 'NONE',  ( 0.0000000000000000000, -0.0000000000000000000, 1.000000000000000000 ) ) ;
#134 = CALENDAR_DATE ( 2017, 31, 1 ) ;
#135 = VECTOR ( 'NONE', #124, 1000.000000000000000 ) ;
#136 = PERSON_AND_ORGANIZATION_ROLE ( 'creator' ) ;
#137 = CARTESIAN_POINT ( 'NONE',  ( 17.50000000000000000, 12.50000000000000000, 3.000000000000000000 ) ) ;
#138 = DIRECTION ( 'NONE',  ( 0.0000000000000000000, 0.0000000000000000000, -1.000000000000000000 ) ) ;
#139 = DATE_TIME_ROLE ( 'classification_date' ) ;
#140 = DIRECTION ( 'NONE',  ( -0.0000000000000000000, -0.0000000000000000000, -1.000000000000000000 ) ) ;
#141 = FACE_OUTER_BOUND ( 'NONE', #7, .T. ) ;
#142 = ORIENTED_EDGE ( 'NONE', *, *, #158, .T. ) ;
#143 = LOCAL_TIME ( 10, 20, 8.000000000000000000, #147 ) ;
#144 = PLANE ( 'NONE',  #58 ) ;
#145 = CARTESIAN_POINT ( 'NONE',  ( 17.50000000000000000, 0.0000000000000000000, 3.000000000000000000 ) ) ;
#146 = ADVANCED_BREP_SHAPE_REPRESENTATION ( 'Web Model 47022', ( #121, #176 ), #131 ) ;
#147 = COORDINATED_UNIVERSAL_TIME_OFFSET ( 5, 0, .BEHIND. ) ;
#148 = PERSON_AND_ORGANIZATION ( #65, #51 ) ;
#149 = CARTESIAN_POINT ( 'NONE',  ( 0.0000000000000000000, 0.0000000000000000000, 0.0000000000000000000 ) ) ;
#150 = CALENDAR_DATE ( 2017, 31, 1 ) ;
#151 = DATE_TIME_ROLE ( 'creation_date' ) ;
#152 = ORIENTED_EDGE ( 'NONE', *, *, #87, .T. ) ;
#153 = DIRECTION ( 'NONE',  ( -1.000000000000000000, 0.0000000000000000000, -0.0000000000000000000 ) ) ;
#154 = EDGE_CURVE ( 'NONE', #129, #22, #81, .T. ) ;
#155 = PERSON_AND_ORGANIZATION_ROLE ( 'design_owner' ) ;
#156 = ORIENTED_EDGE ( 'NONE', *, *, #71, .T. ) ;
#157 =( NAMED_UNIT ( * ) SI_UNIT ( $, .STERADIAN. ) SOLID_ANGLE_UNIT ( ) );
#158 = EDGE_CURVE ( 'NONE', #189, #22, #90, .T. ) ;
#159 = VERTEX_POINT ( 'NONE', #60 ) ;
#160 = PRODUCT_DEFINITION ( 'UNKNOWN', '', #91, #44 ) ;
#161 = CC_DESIGN_PERSON_AND_ORGANIZATION_ASSIGNMENT ( #38, #136, ( #91 ) ) ;
#162 = CALENDAR_DATE ( 2017, 31, 1 ) ;
#163 = ORIENTED_EDGE ( 'NONE', *, *, #154, .T. ) ;
#164 = ADVANCED_FACE ( 'NONE', ( #21 ), #220, .T. ) ;
#165 = DIRECTION ( 'NONE',  ( 1.000000000000000000, 0.0000000000000000000, 0.0000000000000000000 ) ) ;
#166 = PERSON_AND_ORGANIZATION_ROLE ( 'creator' ) ;
#167 =( LENGTH_UNIT ( ) NAMED_UNIT ( * ) SI_UNIT ( .MILLI., .METRE. ) );
#168 = LOCAL_TIME ( 10, 20, 8.000000000000000000, #10 ) ;
#169 = PLANE ( 'NONE',  #82 ) ;
#170 = EDGE_LOOP ( 'NONE', ( #50, #152, #156, #130 ) ) ;
#171 = VECTOR ( 'NONE', #177, 1000.000000000000000 ) ;
#172 = VECTOR ( 'NONE', #23, 1000.000000000000000 ) ;
#173 = CC_DESIGN_PERSON_AND_ORGANIZATION_ASSIGNMENT ( #148, #155, ( #188 ) ) ;
#174 = EDGE_LOOP ( 'NONE', ( #67, #77, #47, #64 ) ) ;
#175 = VECTOR ( 'NONE', #230, 1000.000000000000000 ) ;
#176 = AXIS2_PLACEMENT_3D ( 'NONE', #36, #57, #102 ) ;
#177 = DIRECTION ( 'NONE',  ( 0.0000000000000000000, 1.000000000000000000, 0.0000000000000000000 ) ) ;
#178 = LINE ( 'NONE', #35, #135 ) ;
#179 = DIRECTION ( 'NONE',  ( -1.000000000000000000, 0.0000000000000000000, 0.0000000000000000000 ) ) ;
#180 = AXIS2_PLACEMENT_3D ( 'NONE', #183, #138, #153 ) ;
#181 = DIRECTION ( 'NONE',  ( -1.000000000000000000, 0.0000000000000000000, -0.0000000000000000000 ) ) ;
#182 = CC_DESIGN_PERSON_AND_ORGANIZATION_ASSIGNMENT ( #190, #166, ( #160 ) ) ;
#183 = CARTESIAN_POINT ( 'NONE',  ( 0.0000000000000000000, 0.0000000000000000000, 0.0000000000000000000 ) ) ;
#184 = APPLICATION_CONTEXT ( 'configuration controlled 3d designs of mechanical parts and assemblies' ) ;
#185 = ORIENTED_EDGE ( 'NONE', *, *, #37, .F. ) ;
#186 = APPROVAL_PERSON_ORGANIZATION ( #108, #202, #62 ) ;
#187 = EDGE_CURVE ( 'NONE', #59, #3, #107, .T. ) ;
#188 = PRODUCT ( 'Web Model 47022', 'Web Model 47022', '', ( #120 ) ) ;
#189 = VERTEX_POINT ( 'NONE', #16 ) ;
#190 = PERSON_AND_ORGANIZATION ( #65, #51 ) ;
#191 = UNCERTAINTY_MEASURE_WITH_UNIT (LENGTH_MEASURE( 1.000000000000000100E-005 ), #167, 'distance_accuracy_value', 'NONE');
#192 = ORIENTED_EDGE ( 'NONE', *, *, #95, .T. ) ;
#193 = ORIENTED_EDGE ( 'NONE', *, *, #210, .F. ) ;
#194 = LOCAL_TIME ( 10, 20, 8.000000000000000000, #207 ) ;
#195 = CC_DESIGN_PERSON_AND_ORGANIZATION_ASSIGNMENT ( #227, #13, ( #91 ) ) ;
#196 = CARTESIAN_POINT ( 'NONE',  ( 0.0000000000000000000, 0.0000000000000000000, 0.0000000000000000000 ) ) ;
#197 = CARTESIAN_POINT ( 'NONE',  ( 17.50000000000000000, 0.0000000000000000000, 3.000000000000000000 ) ) ;
#198 = CARTESIAN_POINT ( 'NONE',  ( 0.0000000000000000000, 0.0000000000000000000, 3.000000000000000000 ) ) ;
#199 = CARTESIAN_POINT ( 'NONE',  ( 17.50000000000000000, 0.0000000000000000000, 3.000000000000000000 ) ) ;
#200 = DATE_AND_TIME ( #150, #194 ) ;
#201 = SECURITY_CLASSIFICATION_LEVEL ( 'unclassified' ) ;
#202 = APPROVAL ( #219, 'UNSPECIFIED' ) ;
#203 = CARTESIAN_POINT ( 'NONE',  ( 0.0000000000000000000, 0.0000000000000000000, 3.000000000000000000 ) ) ;
#204 = CALENDAR_DATE ( 2017, 31, 1 ) ;
#205 = FACE_OUTER_BOUND ( 'NONE', #19, .T. ) ;
#206 = APPROVAL ( #61, 'UNSPECIFIED' ) ;
#207 = COORDINATED_UNIVERSAL_TIME_OFFSET ( 5, 0, .BEHIND. ) ;
#208 = VECTOR ( 'NONE', #97, 1000.000000000000000 ) ;
#209 = PERSON_AND_ORGANIZATION ( #65, #51 ) ;
#210 = EDGE_CURVE ( 'NONE', #9, #189, #217, .T. ) ;
#211 = APPROVAL ( #222, 'UNSPECIFIED' ) ;
#212 = DIRECTION ( 'NONE',  ( -0.0000000000000000000, -0.0000000000000000000, -1.000000000000000000 ) ) ;
#213 = ADVANCED_FACE ( 'NONE', ( #141 ), #144, .F. ) ;
#214 = AXIS2_PLACEMENT_3D ( 'NONE', #76, #179, #79 ) ;
#215 = DIRECTION ( 'NONE',  ( 1.000000000000000000, 0.0000000000000000000, 0.0000000000000000000 ) ) ;
#216 = LINE ( 'NONE', #31, #175 ) ;
#217 = LINE ( 'NONE', #199, #172 ) ;
#218 = APPLICATION_PROTOCOL_DEFINITION ( 'international standard', 'config_control_design', 1994, #103 ) ;
#219 = APPROVAL_STATUS ( 'not_yet_approved' ) ;
#220 = PLANE ( 'NONE',  #180 ) ;
#221 = APPROVAL_DATE_TIME ( #24, #211 ) ;
#222 = APPROVAL_STATUS ( 'not_yet_approved' ) ;
#223 = CARTESIAN_POINT ( 'NONE',  ( 0.0000000000000000000, 12.49999999999999600, 3.000000000000000000 ) ) ;
#224 = CC_DESIGN_DATE_AND_TIME_ASSIGNMENT ( #72, #151, ( #160 ) ) ;
#225 = VECTOR ( 'NONE', #8, 1000.000000000000000 ) ;
#226 = LINE ( 'NONE', #196, #98 ) ;
#227 = PERSON_AND_ORGANIZATION ( #65, #51 ) ;
#228 =( NAMED_UNIT ( * ) PLANE_ANGLE_UNIT ( ) SI_UNIT ( $, .RADIAN. ) );
#229 = CC_DESIGN_APPROVAL ( #202, ( #99 ) ) ;
#230 = DIRECTION ( 'NONE',  ( -0.0000000000000000000, -0.0000000000000000000, -1.000000000000000000 ) ) ;
#231 = DIRECTION ( 'NONE',  ( 0.0000000000000000000, 0.0000000000000000000, -1.000000000000000000 ) ) ;
#232 = PLANE ( 'NONE',  #214 ) ;
#233 = DIRECTION ( 'NONE',  ( 0.0000000000000000000, 1.000000000000000000, 0.0000000000000000000 ) ) ;
#234 = AXIS2_PLACEMENT_3D ( 'NONE', #223, #123, #17 ) ;
#235 = ADVANCED_FACE ( 'NONE', ( #74 ), #5, .F. ) ;
#236 = APPROVAL_ROLE ( '' ) ;
#237 = PLANE ( 'NONE',  #234 ) ;
ENDSEC;
END-ISO-10303-21;
